Song name
# A B C D E F G H I J K L M N O P Q R S T U V W X Y Z

Feeder - Waterfall tab

Band: Feeder
Song: Waterfall
Album: Polythene (original release)

original tab by Alex Ball

Drop D tuning


Intro

E|---------------------------|
B|---------------------------|
G|-12-12-11---9-11-12-11--9--|
D|--0--0--0---0--0--0--0--0--|
A|-10-10--9---7--9-10--9--7--|
D|--0--0--0---0--0--0--0--0--|

Riff

E|--------------------------------------------|
B|--------------------------------------------|
G|--------------------------------------------|
D|--0-0-0-3-0-0--0-0-0-6---0-0-0-3-0-0-6-5-3--|
A|--0-0-0-3-0-0--0-0-0-6---0-0-0-3-0-0-6-5-3--|
D|--0-0-0-3-0-0--0-0-0-6---0-0-0-3-0-0-6-5-3--|

Verse:

e|-------------------------------------------------|
B|-------------------------------------------------|
G|-------------------------------------------------|
D|-------------------------------------------------|
A|-------------------------------------------------|
D|--0-0-0--0--0-0-0--0--3---0-0-0--0--0-0-0--0--6--|

e|-------------------------------------------------|
B|-------------------------------------------------|
G|-------------------------------------------------|
D|-------------------------------------------------|
A|-------------------------------------------------|
D|--0-0-0--0--0-0-0--0--8---0-0-0--0--0-0-0--0-10--|

Chorus:


     C9   G/B   G/Bb   F9add14

E|---3-----3-----3-------3-----|
B|---3-----3-----3-------3-----|
G|---0-----0-----0-------0-----|
D|---0-----0-----0-------3-----|
A|---3-----2-----1-------3-----|
D|---X-----X-----X-------3-----|

Interlude:

Intro riff followed by C9 and G/B
Tap to rate this tab
# A B C D E F G H I J K L M N O P Q R S T U V W X Y Z