Guitaretab - guitar tabs
Song name
# A B C D E F G H I J K L M N O P Q R S T U V W X Y Z

Feeder - Lost And Found tab

Feeder  Lost & Found

Intro/Verse : -  (Repeat  x4)

E : ----------------------------------------------------------------|
B : ----------------------------------------------------------------|
G : -- 10------------------9----------------------------------------|
D : ---9----x12-----7------9---x2--9-------- -----------------------|
A: ---11------------7x2---7-------9x2-----------------------------|
E : ---9------------5--------------7--------------------------------|

Youre the right stuff, I got my head straight
[ Tab from: http://www.guitaretab.com/f/feeder/143385.html ]
Pre Chorus :- x2 (Clean)
Chorus x4
                                                    Its pulling me..
E : -----------------------------------------------|------------------|
B : -----------------------------------------------|------------------|
G : ---------------------- 9-------- 11------------|---9----11--------|
D : --11--------9----------9--x-4--- 11---x4-------|---9x4-11--------|x4
A : --11x4-----9----x4----7--------9--------------|---7-----9--------|
E : ---9--------7---------------------------------|-------------------|


Bridge : - x3

E : -12---9-------------------------------------------------------------|
B : ----------12---9----------------------------------------------------|
G : -------------------11---10---9--------------------------------------|
D : ----------------------------------11---9----------------------------|
A : ------------------------------------------11---10---9---------------|
E : ----------------------------------------------------------12--119--|

Outro :- x2

E : ---------------------------------------------------------------|
B : ---------------------------------------------------------------|
G : ---------------------9------------------ ----------------------|
D : ---9---------7-------9x2---9---------11-/---------------------|
A : --11x12-----7x2----7------9x2------11-/---------------------|
E : ---9---------5--------------7---------9--/---------------------|

Hope you enjoy it, this is my first tab too :)
Related for Lost And Found tab