Song name
# A B C D E F G H I J K L M N O P Q R S T U V W X Y Z

Feeder - Satellite News chords

Highlighted       Show chord diagrams
hi there, JACOBTOVEY is here to help
 if like me your a fan of feeder and 'Satellite news' then you may have realized
that no one has tabbed it properly so heres my contribution and its my first tab that 
done.

tuning: CAPO FIFTH FRET
please note that all fret numbers are in relation to the capo on the 5thfret

guitar 1 (lead)
guitar 2 (rythm, plays chords over tablature)

CHORDS USED
   E         A9      A9add7      A        C#m       F#        G#m
|--0--|   |--0--|   |--4--|   |--0--|   |--4--|   |--2--|   |--4--|
|--0--|   |--0--|   |--0--|   |--0--|   |--5--|   |--2--|   |--4--|
|--1--|   |--4--|   |--4--|   |--8--|   |--6--|   |--3--|   |--4--|
|--2--|   |--2--|   |--2--|   |--9--|   |--6--|   |--4--|   |--6--|
|--2--|   |--0--|   |--0--|   |--9--|   |--4--|   |--4--|   |--6--|
|--0--|   |--0--|   |--0--|   |--7--|   |--0--|   |--2--|   |--4--|

intro (2 guitars)

guitar one plays lead, guitar two plays chords

   E             A9    A9add7
|---0--0--0--0---0--0--0--0---|
|--5--5--4--4--/2--2--2--0----|
|-----------------------------|    (x2)
|-----------------------------|
|-----------------------------|
|-----------------------------|


VERSE1, (guitar one repeats intro)
with these words:

E                    A9      A9add7
sending it all right back
E                   A9      A9add7
waiting for heart attacks
E                        A9    A9add7                     E       A9  A9add7
watching the days collide               changing with the weather

VERSE2 (bass starts here)

E                      A9     A9add7
trying to keep it clear
E                      A9     A9add7
slither on broken tears
E                         A9    A9add7                    E     A9  A9add7
searching for ways to cure              who will make it better

PRE CHORUS

guitar two

A9             A9add7          A9               A9add7
You will never keep me down     You will never keep me down

guitar one

|-0--0--0--0---                --0--0--0--0--|
|5--5--4--4----                -5--5--7--7---|
|--------------                --------------|
|--------------                --------------|
|--------------                --------------|
|--------------                --------------|

CHORUS1

E               A             A9
i wanna lift myself up to the sky,

serenade the stars as i pass by
E                  A            A9
i wanna leave it all just for a while,
        C#m          A
i'll be satellite....news

E              A               A9
i wanna lift myself above the clouds,

cut the ropes around me,
                 C#m    A      A9
you'll see me....shiiiiiiiiiiiiiiine

i'll shine like the sun

INTRO REPEATED

   E             A9    A9add7
|---0--0--0--0---0--0--0--0---|
|--5--5--4--4--/2--2--2--0----|
|-----------------------------|    (x2)
|-----------------------------|
|-----------------------------|
|-----------------------------|


VERSE 3            (guitar one plays same as previous verses)
E                         A9     A9add7
Conditioned compatible youth,
E               A9          A9add7
TV and comfort foods
E                     A9    A9add7                         E     A9  A9add7
sending back down the news        they're hoping that its better

PRE CHORUS (same as before)

guitar two

A9             A9add7           A9               A9add7
You will never keep me down     You will never keep me down

guitar one

|-0--0--0--0---                --0--0--0--0--|
|5--5--4--4----                -5--5--6--6---|
|--------------                --------------|
|--------------                --------------|
|--------------                --------------|
|--------------                --------------|


CHORUS2
E               A             A9
i wanna lift myself up to the sky,

serenade the stars as i pass by
E                  A            A9
i wanna leave it all just for a while,
        C#m          A
i'll be satellite....news

E              A               A9
i wanna lift myself above the clouds,

cut the ropes around me,
                 F#    G#m    A9
you'll see me....shiine     shiiiine
                            C#m     A     A9
i'll shine like the sun

ill shine like the sun      C#m      A      A9
                   C#m     A     A9
ill shine like the suuuuuuuuuuuuuuun
                      C#m      A           A9
ill shine like the sun       shine like the sun

chorus (ONLY GUITAR ONE PLAYS INTRO RIFF)

i wanna lift myself up to the sky,
serenade the stars as i pass by
i wanna leave it all just for a while

guitar two


|---0--0--0--0---0--0--0--0---|
|--5--5--4--4--/2--2--2--0----|
|-----------------------------|    (x2)
|-----------------------------|
|-----------------------------|
|-----------------------------|


PRE CHORUS (same as before)

guitar two

A9             A9add7           A9               A9add7
You will never keep me down     You will never keep me down

guitar one

|-0--0--0--0---                --0--0--0--0--|
|5--5--4--4----                -5--5--7--7---|
|--------------                --------------|
|--------------                --------------|
|--------------                --------------|
|--------------                --------------|

CHORUS3 (SAME AS CHORUS1)

E               A             A9
i wanna lift myself up to the sky,

serenade the stars as i pass by
E                  A            A9
i wanna leave it all just for a while,
        C#m          A
i'll be satellite....news

E              A               A9
i wanna lift myself above the clouds,

cut the ropes around me,
                 C#m    A      A9
you'll see me....shiiiiiiiiiiiine

                 C#m    A      A9
you'll see me....shiiiiiiiiiiiine

i'll shine like the sun

E               A             A9
i wanna lift myself up to the sky,

serenade the stars as i pass by
E                  A            A9
i wanna leave it all just for a while,
        C#m          A
i'll be satellite....news

E              A               A9
i wanna lift myself above the clouds,

cut the ropes around me,
                 F#    G#m    A9
you'll see me....shiine     shiiiine

i'll shine like the sun

INTRO PLAYED (GUITAR ONE PLAYS INTRO RIFF)

E           A9        A9add7

E           A9        A9add7
                ill shine like the sun
E           A9        A9add7

E           A9        A9add7
                ill shine like the sun

guitar one

   E             A9    A9add7
|---0--0--0--0---0--0--0--0---|
|--5--5--4--4--/2--2--2--0----|
|-----------------------------|
|-----------------------------|
|-----------------------------|
|-----------------------------|

       ---END---

i think this song is brilliant and deserves a good tab, so please rate this tab and put 
as im sure there will be the odd mistake here and there. THANKS!!
   ---m-------m----
      ||(O O)||
       ||(~)||
Tap to rate this tab
 
# A B C D E F G H I J K L M N O P Q R S T U V W X Y Z