Song name
# A B C D E F G H I J K L M N O P Q R S T U V W X Y Z

Feeder - Buck Rodgers tab

Ermmm This Is My First Tab And I've Only Actually Done This For A Friend But
I Thought I Would Share It With You All Seen As Though There Are Barely Any
Buck Rodgers Tabs On The Internet, And Even Less Of Them Are Right So...

Artist: Feeder
Song: Buck Rodgers
Tabbed By: Billy Goodall
Email: bigbilly93@hotmail.co.uk

Tuning: E A D G B e (standard)

There Are Two Guitars In This Song But I Am Only Tabbing One Of Them
After I Figure Out What The Other Guitar Plays I Will Add It To This :)

Intro

e ----------------------------------------------------------|
B ----------------------------------------------------------|
G ----------------------------------------------------------|
D ----------------------------------------------------------|
A -11--11--11--11--11--11--11--11--11--6--6--6--7--7--7--7--|
E -0---0---0---0---0---0---0---0---0---4--4--4--5--5--5--5--|

e ----------------------------------------------------------|
B ----------------------------------------------------------|
G ----------------------------------------------------------|
D ----------------------------------------------------------|
A -11--11--11--11--11--11--11--11--11--6--6--6--7--7--7--7--|
E -0---0---0---0---0---0---0---0---0---4--4--4--5--5--5--5--|

Verse

e ----------------------------------------------------------|
B ----------------------------------------------------------|
G ----------------------------------------------------------|
D ----------------------------------------------------------|
A -11--11--11--11--11--11--11--11--11--6--6--6--7--7--7--7--|
E -0---0---0---0---0---0---0---0---0---4--4--4--5--5--5--5--|

e ----------------------------------------------------------|
B ----------------------------------------------------------|
G ----------------------------------------------------------|
D ----------------------------------------------------------|
A -11--11--11--11--11--11--11--11--11--6--6--6--7--7--7--7--|
E -0---0---0---0---0---0---0---0---0---4--4--4--5--5--5--5--|

e ----------------------------------------------------------|
B ----------------------------------------------------------|
G ----------------------------------------------------------|
D ----------------------------------------------------------|
A -11--11--11--11--11--11--11--11--11--6--6--6--7--7--7--7--|
E -0---0---0---0---0---0---0---0---0---4--4--4--5--5--5--5--|

e ----------------------------------------------------------|
B ----------------------------------------------------------|
G ----------------------------------------------------------|
D ----------------------------------------------------------|
A -11--11--11--11--11--11--11--11--11--6--6--6--7--7--7--7--|
E -0---0---0---0---0---0---0---0---0---4--4--4--5--5--5--5--|

Pre Chorus

e ----------------------------------------------------------|
B ----------------------------------------------------------|
G ----------------------------------------------------------|
D ----------------------------------------------------------|
A -11--11--11--11--11--11--11--11--11--6--6--6--7--7--7--7--|
E -0---0---0---0---0---0---0---0---0---4--4--4--5--5--5--5--|

e ----------------------------------------------------------|
B ----------------------------------------------------------|
G ----------------------------------------------------------|
D ----------------------------------------------------------|
A -11--11--11--11--11--11--11--11--11--6--6--6--7--7--7--7--|
E -0---0---0---0---0---0---0---0---0---4--4--4--5--5--5--5--|

e ----------------------------------------------------------|
B ----------------------------------------------------------|
G ----------------------------------------------------------|
D -----------------------------------7--7--7--7--7--7--7--7-|
A -9--9--9--9--9--9--9--9--7~~~~~~~~------------------------|
E -7--7--7--7--7--7--7--7--5~~~~~~~~------------------------|

Chorus

e ---------------------------------------------------------------|
B ---------------------------------------------------------------|
G ---------------------------------4---4---4---4---4---4---4---4-|
D -2---2---2---2---2---2---2---2---4---4---4---4---4---4---4---4-|
A -2---2---2---2---2---2---2---2---2---2---2---2---2---2---2---2-|
E -0---0---0---0---0---0---0---0---------------------------------|

e ---------------------------------------------------------------|
B ---------------------------------------------------------------|
G -6---6---6---6---6---6---6---6---2---2---2---2---2---2---2---2-|
D -6---6---6---6---6---6---6---6---2---2---2---2---2---2---2---2-|
A -4---4---4---4---4---4---4---4---0---0---0---0---0---0---0---0-|
E ---------------------------------------------------------------|

e ---------------------------------------------------------------|
B ---------------------------------------------------------------|
G ---------------------------------4---4---4---4---4---4---4---4-|
D -2---2---2---2---2---2---2---2---4---4---4---4---4---4---4---4-|
A -2---2---2---2---2---2---2---2---2---2---2---2---2---2---2---2-|
E -0---0---0---0---0---0---0---0---------------------------------|

e ---------------------------------------------------------------|
B ---------------------------------------------------------------|
G -2---2---2---2---2---2---2---2---2---2---2---2---2---2---2---2-|
D -2---2---2---2---2---2---2---2---2---2---2---2---2---2---2---2-|
A -0---0---0---0---0---0---0---0---0---0---0---0---0---0---0---0-|
E ---------------------------------------------------------------|

Verse

e ----------------------------------------------------------|
B ----------------------------------------------------------|
G ----------------------------------------------------------|
D ----------------------------------------------------------|
A -11--11--11--11--11--11--11--11--11--6--6--6--7--7--7--7--|
E -0---0---0---0---0---0---0---0---0---4--4--4--5--5--5--5--|

e ----------------------------------------------------------|
B ----------------------------------------------------------|
G ----------------------------------------------------------|
D ----------------------------------------------------------|
A -11--11--11--11--11--11--11--11--11--6--6--6--7--7--7--7--|
E -0---0---0---0---0---0---0---0---0---4--4--4--5--5--5--5--|

e ----------------------------------------------------------|
B ----------------------------------------------------------|
G ----------------------------------------------------------|
D ----------------------------------------------------------|
A -11--11--11--11--11--11--11--11--11--6--6--6--7--7--7--7--|
E -0---0---0---0---0---0---0---0---0---4--4--4--5--5--5--5--|

e ----------------------------------------------------------|
B ----------------------------------------------------------|
G ----------------------------------------------------------|
D ----------------------------------------------------------|
A -11--11--11--11--11--11--11--11--11--6--6--6--7--7--7--7--|
E -0---0---0---0---0---0---0---0---0---4--4--4--5--5--5--5--|

Pre Chorus

e ----------------------------------------------------------|
B ----------------------------------------------------------|
G ----------------------------------------------------------|
D ----------------------------------------------------------|
A -11--11--11--11--11--11--11--11--11--6--6--6--7--7--7--7--|
E -0---0---0---0---0---0---0---0---0---4--4--4--5--5--5--5--|

e ----------------------------------------------------------|
B ----------------------------------------------------------|
G ----------------------------------------------------------|
D ----------------------------------------------------------|
A -11--11--11--11--11--11--11--11--11--6--6--6--7--7--7--7--|
E -0---0---0---0---0---0---0---0---0---4--4--4--5--5--5--5--|

e ----------------------------------------------------------|
B ----------------------------------------------------------|
G ----------------------------------------------------------|
D -----------------------------------7--7--7--7--7--7--7--7-|
A -9--9--9--9--9--9--9--9--7~~~~~~~~------------------------|
E -7--7--7--7--7--7--7--7--5~~~~~~~~------------------------|

Chorus

e ---------------------------------------------------------------|
B ---------------------------------------------------------------|
G ---------------------------------4---4---4---4---4---4---4---4-|
D -2---2---2---2---2---2---2---2---4---4---4---4---4---4---4---4-|
A -2---2---2---2---2---2---2---2---2---2---2---2---2---2---2---2-|
E -0---0---0---0---0---0---0---0---------------------------------|

e ---------------------------------------------------------------|
B ---------------------------------------------------------------|
G -6---6---6---6---6---6---6---6---2---2---2---2---2---2---2---2-|
D -6---6---6---6---6---6---6---6---2---2---2---2---2---2---2---2-|
A -4---4---4---4---4---4---4---4---0---0---0---0---0---0---0---0-|
E ---------------------------------------------------------------|

e ---------------------------------------------------------------|
B ---------------------------------------------------------------|
G ---------------------------------4---4---4---4---4---4---4---4-|
D -2---2---2---2---2---2---2---2---4---4---4---4---4---4---4---4-|
A -2---2---2---2---2---2---2---2---2---2---2---2---2---2---2---2-|
E -0---0---0---0---0---0---0---0---------------------------------|

e ---------------------------------------------------------------|
B ---------------------------------------------------------------|
G -2---2---2---2---2---2---2---2---2---2---2---2---2---2---2---2-|
D -2---2---2---2---2---2---2---2---2---2---2---2---2---2---2---2-|
A -0---0---0---0---0---0---0---0---0---0---0---0---0---0---0---0-|
E ---------------------------------------------------------------|

e ---------------------------------------------------------------|
B ---------------------------------------------------------------|
G ---------------------------------4---4---4---4---4---4---4---4-|
D -2---2---2---2---2---2---2---2---4---4---4---4---4---4---4---4-|
A -2---2---2---2---2---2---2---2---2---2---2---2---2---2---2---2-|
E -0---0---0---0---0---0---0---0---------------------------------|

e ---------------------------------------------------------------|
B ---------------------------------------------------------------|
G -6---6---6---6---6---6---6---6---2---2---2---2---2---2---2---2-|
D -6---6---6---6---6---6---6---6---2---2---2---2---2---2---2---2-|
A -4---4---4---4---4---4---4---4---0---0---0---0---0---0---0---0-|
E ---------------------------------------------------------------|

e ---------------------------------------------------------------|
B ---------------------------------------------------------------|
G ---------------------------------4---4---4---4---4---4---4---4-|
D -2---2---2---2---2---2---2---2---4---4---4---4---4---4---4---4-|
A -2---2---2---2---2---2---2---2---2---2---2---2---2---2---2---2-|
E -0---0---0---0---0---0---0---0---------------------------------|

e ---------------------------------------------------------------|
B ---------------------------------------------------------------|
G -2---2---2---2---2---2---2---2---2---2---2---2---2---2---2---2-|
D -2---2---2---2---2---2---2---2---2---2---2---2---2---2---2---2-|
A -0---0---0---0---0---0---0---0---0---0---0---0---0---0---0---0-|
E ---------------------------------------------------------------|

Bridge

e ----------------------------------------------------------|
B ----------------------------------------------------------|
G ----------------------------------------------------------|
D -4--4--4--4--4--6--7~~-7--7~~--10--10--10--10-------------|
A -4--4--4--4--4--6--7~~-7--7~~--10--10--10--10-------------|
E -2--2--2--2--2--4--5~~-5--5~~--8---8---8---8--------------|

e ----------------------------------------------------------|
B ----------------------------------------------------------|
G ----------------------------------------------------------|
D -4--4--4--4--4--6--7~~-7--7~~--7--7--7--7-----------------|
A -4--4--4--4--4--6--7~~-7--7~~--7--7--7--7-----------------|
E -2--2--2--2--2--4--5~~-5--5~~--5--5--5--5-----------------|

e ----------------------------------------------------------|
B ----------------------------------------------------------|
G -13--13--13--10--10--10--10--10--8--8--8--6--6--6--6--6---|
D -x---x---x---x---x---x---x---x---x--x--x--x--x--x--x--x---|
A -11--11--11--8---8---8---8---8---6--6--6--4--4--4--4--4---|
E ----------------------------------------------------------|

e ----------------------------------------------------------|
B ----------------------------------------------------------|
G -13--13--13--10--10--10--10--10--8--8--8--7--7--7--7--7---|
D -x---x---x---x---x---x---x---x---x--x--x--x--x--x--x--x---|
A -11--11--11--8---8---8---8---8---6--6--6--9--9--9--9--9---|
E ----------------------------------------------------------|

e ----------------------------------------------------------|
B ----------------------------------------------------------|
G -13--13--13--10--10--10--10--10--8--8--8--6--6--6--6--6---|
D -x---x---x---x---x---x---x---x---x--x--x--x--x--x--x--x---|
A -11--11--11--8---8---8---8---8---6--6--6--4--4--4--4--4---|
E ----------------------------------------------------------|

e ----------------------------------------------------------|
B ----------------------------------------------------------|
G -13--13--13--10--10--10--10--10--8--8--8--7--7--7--7--7---|
D -x---x---x---x---x---x---x---x---x--x--x--x--x--x--x--x---|
A -11--11--11--8---8---8---8---8---6--6--6--9--9--9--9--9---|
E ----------------------------------------------------------|

Pre Chorus

e ----------------------------------------------------------|
B ----------------------------------------------------------|
G ----------------------------------------------------------|
D ----------------------------------------------------------|
A -11--11--11--11--11--11--11--11--11--6--6--6--7--7--7--7--|
E -0---0---0---0---0---0---0---0---0---4--4--4--5--5--5--5--|

e ----------------------------------------------------------|
B ----------------------------------------------------------|
G ----------------------------------------------------------|
D ----------------------------------------------------------|
A -11--11--11--11--11--11--11--11--11--6--6--6--7--7--7--7--|
E -0---0---0---0---0---0---0---0---0---4--4--4--5--5--5--5--|

Chorus

e ---------------------------------------------------------------|
B ---------------------------------------------------------------|
G ---------------------------------4---4---4---4---4---4---4---4-|
D -2---2---2---2---2---2---2---2---4---4---4---4---4---4---4---4-|
A -2---2---2---2---2---2---2---2---2---2---2---2---2---2---2---2-|
E -0---0---0---0---0---0---0---0---------------------------------|

e ---------------------------------------------------------------|
B ---------------------------------------------------------------|
G -6---6---6---6---6---6---6---6---2---2---2---2---2---2---2---2-|
D -6---6---6---6---6---6---6---6---2---2---2---2---2---2---2---2-|
A -4---4---4---4---4---4---4---4---0---0---0---0---0---0---0---0-|
E ---------------------------------------------------------------|

e ---------------------------------------------------------------|
B ---------------------------------------------------------------|
G ---------------------------------4---4---4---4---4---4---4---4-|
D -2---2---2---2---2---2---2---2---4---4---4---4---4---4---4---4-|
A -2---2---2---2---2---2---2---2---2---2---2---2---2---2---2---2-|
E -0---0---0---0---0---0---0---0---------------------------------|

e ---------------------------------------------------------------|
B ---------------------------------------------------------------|
G -2---2---2---2---2---2---2---2---2---2---2---2---2---2---2---2-|
D -2---2---2---2---2---2---2---2---2---2---2---2---2---2---2---2-|
A -0---0---0---0---0---0---0---0---0---0---0---0---0---0---0---0-|
E ---------------------------------------------------------------|

e ---------------------------------------------------------------|
B ---------------------------------------------------------------|
G ---------------------------------4---4---4---4---4---4---4---4-|
D -2---2---2---2---2---2---2---2---4---4---4---4---4---4---4---4-|
A -2---2---2---2---2---2---2---2---2---2---2---2---2---2---2---2-|
E -0---0---0---0---0---0---0---0---------------------------------|

e ---------------------------------------------------------------|
B ---------------------------------------------------------------|
G -6---6---6---6---6---6---6---6---2---2---2---2---2---2---2---2-|
D -6---6---6---6---6---6---6---6---2---2---2---2---2---2---2---2-|
A -4---4---4---4---4---4---4---4---0---0---0---0---0---0---0---0-|
E ---------------------------------------------------------------|

e ---------------------------------------------------------------|
B ---------------------------------------------------------------|
G ---------------------------------4---4---4---4---4---4---4---4-|
D -2---2---2---2---2---2---2---2---4---4---4---4---4---4---4---4-|
A -2---2---2---2---2---2---2---2---2---2---2---2---2---2---2---2-|
E -0---0---0---0---0---0---0---0---------------------------------|

e ---------------------------------------------------------------|
B ---------------------------------------------------------------|
G -2---2---2---2---2---2---2---2---2---2---2---2---2---2---2---2-|
D -2---2---2---2---2---2---2---2---2---2---2---2---2---2---2---2-|
A -0---0---0---0---0---0---0---0---0---0---0---0---0---0---0---0-|
E ---------------------------------------------------------------|

Outro

e ----------------------------------------------------------|
B ----------------------------------------------------------|
G ----------------------------------------------------------|
D ----------------------------------------------------------|
A -11--11--11--11--11--11--11--11~~~----6--6~~--7--7--------|
E -0---0---0---0---0---0---0---0~~~~----4--4~~--5--5--------|

If You Have Any Comments About This Tab Or
You Know What The Other Guitar Plays Please Mail Me
Cheers :)
Tap to rate this tab
 
# A B C D E F G H I J K L M N O P Q R S T U V W X Y Z