Song name
# A B C D E F G H I J K L M N O P Q R S T U V W X Y Z

Feeder - Sentimental tab

Feeder - Sentimental Tab
Tuning - Low E string tuned down to a D
Tabbed by - Jcthelovechild (email me for any requests)

No one had posted a full song tab yet so i thought id give it a go

E|--------------------------------|
B|--------------------------------|
G|--------------------------------|
D|-0-0-0-3-3-3-11-11-11-0-2-2-2-0-|
A|-0-0-0-3-3-3-11-11-11-0-2-2-2-0-|
E|-0-0-0-3-3-3-11-11-11-0-2-2-2-0-|

E|------------------------------------------------------------------------------|
B|------------------------------------------------------------------------------|
G|------------------------------------------------------------------------------|
D|-3-3-3-3-3-5-5-5-5-5-10-10-10-10-7-7-15-15-15-15-10-10-12-3-3-3-3-3-5-5-5-5-5-|
A|-3-3-3-3-3-5-5-5-5-5-10-10-10-10-7-7-15-15-15-15-10-10-12-3-3-3-3-3-5-5-5-5-5-|
E|-3-3-3-3-3-5-5-5-5-5-10-10-10-10-7-7-15-15-15-15-10-10-12-3-3-3-3-3-5-5-5-5-5-|

E|---|
B|---|
G|---|
D|-7-|
A|-7-|
E|-7-|

E|-----------------------------|
B|-----------------------------|
G|-----------------------------|
D|-------5-----5-0-0-0-3-3-3-0-|
A|---5-------5---0-0-0-3-3-3-0-|
E|-5---5---5-----0-0-0-3-3-3-0-|
Tap to rate this tab
# A B C D E F G H I J K L M N O P Q R S T U V W X Y Z