Song name
# A B C D E F G H I J K L M N O P Q R S T U V W X Y Z

Feeder - Buck Rogers tab

Feeder-Buck Rogers

chords
  E    G#   A    B    C#m   
--0----4----5----7----9
--0----4----5----7----9
--1----5----6----8----9
--2----6----7----9----11
--2----6----7----9----11
--0----4----5----7----9

intro/verse riff
A---11-11-11-11-11-11-11-11-6-6-6-7-7-7-7
E---0--0--0--0--0--0--0--0--4-4-4-5-5-5-5

2nd guitar?
e-----0-0-0-0-0-0-0-0-0-0-0
B---12-12-12-12-11-11-10-10

bridge
EEEEEEEEEG#G#G#AAA repeat  BBBBBBBBB

chorus
EEEEEEEEBBBBBBBBC#mC#mC#mC#mC#mC#mC#mC#mAAAAAAA
EEEEEEEEBBBBBBBBAAAAAAAA AAAAAAA

Middle 8                      (repeat this about 3 and a 1/2 times-                                  listen to the song)
-----------------------------------------------------------
------------------------------9-9-9------------------------
------------------------------------11-11-11-8-8-8---------
--4-4-4--6-7-7--4-4-4--6-7-7----------------------11-11-11- 
--4-4-4--6-7-7--4-4-4--6-7-7-------------------------------
--2-2-2--4-5-5--2-2-2--4-5-5-------------------------------

Intro
Verse
Bridge
Chorus
Verse
Bridge
Chorus x 2
Middle 8
Bridge 
Chorus x 2

hope this helps, any changes u wish to tell me about email to
kinky_dude2k@hotmail.com
enjoy
Tap to rate this tab
# A B C D E F G H I J K L M N O P Q R S T U V W X Y Z