Song name
# A B C D E F G H I J K L M N O P Q R S T U V W X Y Z

Feeder - Seven Days In The Sun tab

Song: 7 days in the sun
Band: feeder
Album: echo park

Tabbed by: Robbe
e-mail: elrobbe@hotmail.com

INTRO

e|-------------------------------------------|
b|-------------------------------------------|
g|-----------7--7--7----------x--5--5--4--2--|
d|--5--5--x--7--7--7----7--7--x--5--5--4--3--|
a|--5--5--x--5--5--5----7--7--x--3--3--2--1--|
e|--3--3--x-------------5--5-----------------|

e|-------------------------------------------|
b|-------------------------------------------|
g|-----------7--7--7----------x--5--5--5-----|
d|--5--5--x--7--7--7----7--7--x--5--5--5-----|
a|--5--5--x--5--5--5----7--7--x--3--3--3-----|
e|--3--3--x-------------5--5-----------------|


MAIN RIFF

e|-----------------------------------------------------|
b|-----------------------------------------------------|     X 10
g|-----------x-x--7--7--7--x-x-----------x-x--5--5--5--|
d|--5--5--5--x-x--7--7--7--x-x--7--7--7--x-x--5--5--5--|
a|--5--5--5--x-x--5--5--5--x-x--7--7--7--x-x--3--3--3--|
e|--3--3--3--x-x-----------x-x--5--5--5--x-x-----------|

   background piece

		e|--------------------------------...
		b|--12----12------12------12------...
		g|-----12-----12------12------12--...
		d|--------------------------------...
		a|--------------------------------...
		e|--------------------------------...

BRIDGE

          A                        C
e|-----------0-----------|-----------0--------|
b|-------------2---------|--------------1-----|
g|--------2-------2------|--------0--------0--|
d|-----2-----------------|-----2--------------|
a|--0--------------------|--3-----------------|
e|-----------------------|--------------------| x2

CHORUS

e|-----------------------------------------------------|
b|-----------------------------------------------------|	X 4
g|-------7--7--7--7--7--7--x-x-----------x-x--5--5--5--|
d|--5----7--7--7--7--7--7--x-x--7--7--7--x-x--5--5--5--|
a|--5----5--5--5--5--5--5--x-x--7--7--7--x-x--3--3--3--|
e|--3----------------------x-x--5--5--5--x-x-----------|

INTRO - MAIN RIFF - BRIDGE - CHORUS

HEAVY PIECE

e|---------------------------------|
b|---------------------------------|
g|---------------------------------|
d|--4---4--4-4-4--4---5-5--5-5-5---|
a|--4---4--4-4-4--4---5-5--5-5-5---|
e|--2---2--2-2-2--2---3-3--3-3-3---|
Tap to rate this tab
 
# A B C D E F G H I J K L M N O P Q R S T U V W X Y Z