Song name
# A B C D E F G H I J K L M N O P Q R S T U V W X Y Z

Feeder - Oxygen tab

Intro/Verse
   B5         C5
e|-------------------------|
B|-------------------------|
G|---0---0------0---0------| x loads
D|--4---4---4--5---5---5---|
A|-2---2---2--3---3---3----|
E|-------------------------|


Last time just keep playing the B5 picking pattern

Chorus

e|-------------------------------------------------------------------------|
B|-------------------------------------------------------------------------|
G|-------------------------------------------------------------------------| x 2
D|-5-5-5-5-5-5-5-5-7-7-7-7-7-7-7-7-9-9-9-9-9-9-9-9-10-10-10-10-10-10-10-10-|
A|-5-5-5-5-5-5-5-5-7-7-7-7-7-7-7-7-9-9-9-9-9-9-9-9-10-10-10-10-10-10-10-10-|
E|-3-3-3-3-3-3-3-3-5-5-5-5-5-5-5-5-7-7-7-7-7-7-7-7-8--8--8--8--8--8--8--8--|

Back to verse here.

Then play the chorus again, but play it more times than two.

Brigde

                Section 1                              Section 2
e|----------------------------------------------|-------------------|
B|----------------------------------------------|-------------------|
G|----------------------------------------------|-6-6-6-6-6-6-6-6-6-|
D|-5-5-5-5-5-5-5-5-5-5-5-5-5-5-5-5-5-5-5-5-5-5-5|-6-6-6-6-6-6-6-6-6-|
A|-5-5-5-5-5-5-5-5-5-5-5-5-5-5-5-5-5-5-5-5-5-5-5|-4-4-4-4-4-4-4-4-4-|
E|-3-3-3-3-3-3-3-3-3-3-3-3-3-3-3-3-3-3-3-3-3-3-3|-------------------|
   __________________PM_______________________/

                         Section 3
e|----------------------------------------------------------------|
B|----------------------------------------------------------------|
G|----------------------------------------------------------------|
D|-5-5-5-5-5-5-5-5-5-5-5-5-5-5-5-5-5-5-5-5-5-5-5-5-5-5-5-5-5-5-5--|
A|-5-5-5-5-5-5-5-5-5-5-5-5-5-5-5-5-5-5-5-5-5-5-5-5-5-5-5-5-5-5-5--|
E|-3-3-3-3-3-3-3-3-3-3-3-3-3-3-3-3-3-3-3-3-3-3-3-3-3-3-3-3-3-3-3--|
 ____________________________PM_______________________________/

Rightio, the order for this is.....

Section 1
Section 2
Section 3
Section 2
Then repeat when he screams but THIS time do it WITHOUT palm muting.

Then back to verse then chorus and your done!
Tap to rate this tab
 
# A B C D E F G H I J K L M N O P Q R S T U V W X Y Z