Song name
# A B C D E F G H I J K L M N O P Q R S T U V W X Y Z

Feeder - Buck Rogers tab

(2 guitar version)

           VERSE

           E|--------------------------------------------|
           B|--------------------------------------------|
guitar 1   G|--------------------------------------------|
           D|--------------------------------------------|  X6
           A|--11-11-11-11-11-11-11-11-11-6-6-6--7-7-7-7-|
           E|--0--0--0--0--0--0--0--0--0--4-4-4--5-5-5-5-|

Guitar 2 comes in after X2 of the above is played

           E|----12--12--12--12--12--12--12--12-----|
           B|--12--12--12--12--11--11--10--10-------|
Guitar 2   G|---------------------------------------|    X4
           D|---------------------------------------|
           A|---------------------------------------|
           E|---------------------------------------|
 (overdrive after this point helps :P)
           E|-----------------------------------|
           B|-----------------------------------|
           G|-----------------------------------|
Guitar 1/2 D|--2-2-2-2-2-2-2-2-2-6-6-6-7-7-7-7--| X2
           A|--2-2-2-2-2-2-2-2-2-6-6-6-7-7-7-7--|
           E|--0-0-0-0-0-0-0-0-0-4-4-4-5-5-5-5--|

           E|-------------------- S B  -----------------|
           B|-------------------- H R  -----------------|
           G|-------------------- O E  2-2-2-2-2-2-2-2--|
Guitar 1/2 D|--9-9-9-9-9-9-9-9--7 R A  -----------------| X1
           A|--9-9-9-9-9-9-9-9--7 T K  -----------------|
           E|--7-7-7-7-7-7-7-7--5     ------------------|

           CHORUS

           E|------------------------------------|
           B|------------------------------------|
           G|------------------------------------|
Guitar 1/2 D|--2-2-2-2-2-2-2-2--9-9-9-9-9-9-9-9--| X1
           A|--2-2-2-2-2-2-2-2--9-9-9-9-9-9-9-9--|
           E|--0-0-0-0-0-0-0-0--7-7-7-7-7-7-7-7--|

           E|--------------------------------------------|
           B|--------------------------------------------|
           G|--------------------------------------------|
Guitar 1/2 D|--11-11-11-11-11-11-11-11--7-7-7-7-7-7-7-7--|  X1
           A|--11-11-11-11-11-11-11-11--7-7-7-7-7-7-7-7--|
           E|---9--9--9--9--9--9--9--9--5-5-5-5-5-5-5-5--|

           E|------------------------------------|
           B|------------------------------------|
           G|------------------------------------|
Guitar 1/2 D|--2-2-2-2-2-2-2-2--9-9-9-9-9-9-9-9--| X1
           A|--2-2-2-2-2-2-2-2--9-9-9-9-9-9-9-9--|
           E|--0-0-0-0-0-0-0-0--7-7-7-7-7-7-7-7--|

           E|-----------------------------------|
           B|-----------------------------------|
           G|-----------------------------------|
Guitar 1/2 D|--7-7-7-7-7-7-7-7--7-7-7-7-7-7-7-7-|  X1
           A|--7-7-7-7-7-7-7-7--7-7-7-7-7-7-7-7-|
           E|--5-5-5-5-5-5-5-5--5-5-5-5-5-5-5-5-|

BRIDGE/WEIRD PART LOL

           E|--------------------------------|
           B|--------------------------------|
Guitar 1   G|--------------------------------|  X2
           D|--2-2-2-2-2-2-2-2-2--6-6-6--7-7-|
           A|--2-2-2-2-2-2-2-2-2--6-6-6--7-7-|
           E|--0-0-0-0-0-0-0-0-0--4-4-4--5-5-|
  Guitar 2 comes in at this point/|\
                                  |
           E|--------------------------------|
           B|---------------------4-4-4--5-5-|
Guitar 2   G|--------------------------------|
           D|--------------------------------| X2
           A|--------------------------------|
           E|--------------------------------|

REMEMBER TO DO THIS TWICE /|\
                           |

           VERSE
STOP OVERDRIVE

           E|--------------------------------------------|
           B|--------------------------------------------|
guitar 1   G|--------------------------------------------|
           D|--------------------------------------------|  X4
           A|--11-11-11-11-11-11-11-11-11-6-6-6--7-7-7-7-|
           E|--0--0--0--0--0--0--0--0--0--4-4-4--5-5-5-5-|

Guitar 2 comes in STRAIGHT AWAY this time

           E|----12--12--12--12--12--12--12--12-----|
           B|--12--12--12--12--11--11--10--10-------|
Guitar 2   G|---------------------------------------|    X4
           D|---------------------------------------|
           A|---------------------------------------|
           E|---------------------------------------|

(overdrive after this point helps :P)
           E|-----------------------------------|
           B|-----------------------------------|
           G|-----------------------------------|
Guitar 1/2 D|--2-2-2-2-2-2-2-2-2-6-6-6-7-7-7-7--| X2
           A|--2-2-2-2-2-2-2-2-2-6-6-6-7-7-7-7--|
           E|--0-0-0-0-0-0-0-0-0-4-4-4-5-5-5-5--|

           E|-------------------- S B  -----------------|
           B|-------------------- H R  -----------------|
           G|-------------------- O E  2-2-2-2-2-2-2-2--|
Guitar 1/2 D|--9-9-9-9-9-9-9-9--7 R A  -----------------| X1
           A|--9-9-9-9-9-9-9-9--7 T K  -----------------|
           E|--7-7-7-7-7-7-7-7--5     ------------------|


CHORUS

           E|------------------------------------|
           B|------------------------------------|
           G|------------------------------------|
Guitar 1/2 D|--2-2-2-2-2-2-2-2--9-9-9-9-9-9-9-9--| X1
           A|--2-2-2-2-2-2-2-2--9-9-9-9-9-9-9-9--|
           E|--0-0-0-0-0-0-0-0--7-7-7-7-7-7-7-7--|

           E|--------------------------------------------|
           B|--------------------------------------------|
           G|--------------------------------------------|
Guitar 1/2 D|--11-11-11-11-11-11-11-11--7-7-7-7-7-7-7-7--|  X1
           A|--11-11-11-11-11-11-11-11--7-7-7-7-7-7-7-7--|
           E|---9--9--9--9--9--9--9--9--5-5-5-5-5-5-5-5--|

           E|------------------------------------|
           B|------------------------------------|
           G|------------------------------------|
Guitar 1/2 D|--2-2-2-2-2-2-2-2--9-9-9-9-9-9-9-9--| X1
           A|--2-2-2-2-2-2-2-2--9-9-9-9-9-9-9-9--|
           E|--0-0-0-0-0-0-0-0--7-7-7-7-7-7-7-7--|

           E|-----------------------------------|
           B|-----------------------------------|
           G|-----------------------------------|
Guitar 1/2 D|--7-7-7-7-7-7-7-7--7-7-7-7-7-7-7-7-|  X1
           A|--7-7-7-7-7-7-7-7--7-7-7-7-7-7-7-7-|
           E|--5-5-5-5-5-5-5-5--5-5-5-5-5-5-5-5-|


 CHORUS (again)

           E|------------------------------------|
           B|------------------------------------|
           G|------------------------------------|
Guitar 1/2 D|--2-2-2-2-2-2-2-2--9-9-9-9-9-9-9-9--| X1
           A|--2-2-2-2-2-2-2-2--9-9-9-9-9-9-9-9--|
           E|--0-0-0-0-0-0-0-0--7-7-7-7-7-7-7-7--|

           E|--------------------------------------------|
           B|--------------------------------------------|
           G|--------------------------------------------|
Guitar 1/2 D|--11-11-11-11-11-11-11-11--7-7-7-7-7-7-7-7--|  X1
           A|--11-11-11-11-11-11-11-11--7-7-7-7-7-7-7-7--|
           E|---9--9--9--9--9--9--9--9--5-5-5-5-5-5-5-5--|

           E|------------------------------------|
           B|------------------------------------|
           G|------------------------------------|
Guitar 1/2 D|--2-2-2-2-2-2-2-2--9-9-9-9-9-9-9-9--| X1
           A|--2-2-2-2-2-2-2-2--9-9-9-9-9-9-9-9--|
           E|--0-0-0-0-0-0-0-0--7-7-7-7-7-7-7-7--|

           E|-----------------------------------|
           B|-----------------------------------|
           G|-----------------------------------|
Guitar 1/2 D|--7-7-7-7-7-7-7-7--7-7-7-7-7-7-7-7-|  X1
           A|--7-7-7-7-7-7-7-7--7-7-7-7-7-7-7-7-|
           E|--5-5-5-5-5-5-5-5--5-5-5-5-5-5-5-5-|

ANOTHER BRIDGE/WEIRD PART (they like these)

           E|-------------------------|
           B|-------------------------|
Guitar 1/2 G|-------------------------|
           D|--2--6--7--7-7-7-7-7-7-7-|
           A|--2--6--7--7-7-7-7-7-7-7-|
           E|--0--4--5--5-5-5-5-5-5-5-|

(overdrive off)

           E|----------------------------------------|
           B|----------------------------------------|
Guitar 1   G|--13-13-13-11-11-11-11-11-8-8-8-6-6-6-6-|  X4
           D|----------------------------------------|
           A|----------------------------------------|
           E|----------------------------------------|
Guitar 2 comes in with overdrive on the last repeat of this and halfway through.

           E|----------------------------------------|
           B|----------------------------------------|
Guitar 2   G|----------------------------------------|  X1
           D|--------------------------2-2-2-2-2-2-2-|
           A|--------------------------2-2-2-2-2-2-2-|
           E|--------------------------0-0-0-0-0-0-0-|

VERSE

           E|-----------------------------------|
           B|-----------------------------------|
           G|-----------------------------------|
Guitar 1/2 D|--2-2-2-2-2-2-2-2-2-6-6-6-7-7-7-7--| X2
           A|--2-2-2-2-2-2-2-2-2-6-6-6-7-7-7-7--|
           E|--0-0-0-0-0-0-0-0-0-4-4-4-5-5-5-5--|

CHORUS X2

           E|------------------------------------|
           B|------------------------------------|
           G|------------------------------------|
Guitar 1/2 D|--2-2-2-2-2-2-2-2--9-9-9-9-9-9-9-9--| X1
           A|--2-2-2-2-2-2-2-2--9-9-9-9-9-9-9-9--|
           E|--0-0-0-0-0-0-0-0--7-7-7-7-7-7-7-7--|

           E|--------------------------------------------|
           B|--------------------------------------------|
           G|--------------------------------------------|
Guitar 1/2 D|--11-11-11-11-11-11-11-11--7-7-7-7-7-7-7-7--|  X1
           A|--11-11-11-11-11-11-11-11--7-7-7-7-7-7-7-7--|
           E|---9--9--9--9--9--9--9--9--5-5-5-5-5-5-5-5--|

           E|------------------------------------|
           B|------------------------------------|
           G|------------------------------------|
Guitar 1/2 D|--2-2-2-2-2-2-2-2--9-9-9-9-9-9-9-9--| X1
           A|--2-2-2-2-2-2-2-2--9-9-9-9-9-9-9-9--|
           E|--0-0-0-0-0-0-0-0--7-7-7-7-7-7-7-7--|

           E|-----------------------------------|
           B|-----------------------------------|
           G|-----------------------------------|
Guitar 1/2 D|--7-7-7-7-7-7-7-7--7-7-7-7-7-7-7-7-|  X1
           A|--7-7-7-7-7-7-7-7--7-7-7-7-7-7-7-7-|
           E|--5-5-5-5-5-5-5-5--5-5-5-5-5-5-5-5-|

REMEMBER: DO THE CHORUS TWICE

OUTRO

           E|--------------------------------|
           B|--------------------------------|
Guitar 1   G|--------------------------------|  X1
           D|--2-2-2-2-2-2-2-2-2--6-6-6--7-7-|
           A|--2-2-2-2-2-2-2-2-2--6-6-6--7-7-|
           E|--0-0-0-0-0-0-0-0-0--4-4-4--5-5-|
  Guitar 2 comes in at this point/|\
                                  |
           E|--------------------------------|
           B|---------------------4-4-4--5-5-|
Guitar 2   G|--------------------------------|
           D|--------------------------------| X1
           A|--------------------------------|
           E|--------------------------------|
Tap to rate this tab
# A B C D E F G H I J K L M N O P Q R S T U V W X Y Z