Song name
# A B C D E F G H I J K L M N O P Q R S T U V W X Y Z

Feeder - Child In You tab

Band: Feeder
Song: Child In You
Album: Comfort In Sound

capo 5th
Standard Tuning

Intro:
e|---2----2----0-----2----2-----0--------------0---|
B|----------------------------------3------3-----3-|
G|-----0---0-----0-----0----0----0-----------------|
D|-2----2----0-----2----2-----0-------0-----0------|
A|--------------------------------3----0h2---0-----|
E|-------------------------------------------------|

Verse:
e|---2----2----0-----2----2-----0--------------0--|x2
B|---------------------------------3------3-----3-|
G|-----0---0-----0-----0----0----0---------0------|
D|-2----2----0-----2----2-----0-------0-----0-----|
A|--------------------------------3-----2---------|
E|------------------------------------------------|

e|---2----2-----0--------------|
B|-----------------3------3----|
G|-----0----0----0---------0---|
D|-2----2-----0-------0-----0--|
A|----------------3-----2------|
E|-----------------------------|

Chorus 1:

Play: D  Am  C  G x3
      F  Em

break: repeat intro x2

Verse 2: same as verse 1
chorus 2: same as chorus 1, play twice the "F  Em" part

Bridge:

Play:  Am  C  G  D   3times

repeat intro x2

outro:

e|---2----2----0-----2----2-----0---------------0--|
B|----------------------------------3-----3------3-|
G|-----0---0-----0-----0----0----0---------0-------|
D|-2----2----0-----2----2-----0-------0------------|
A|--------------------------------3----2-----0-----|
E|-------------------------------------------------|

Hope It's right!!rate :P
Tap to rate this tab
# A B C D E F G H I J K L M N O P Q R S T U V W X Y Z