Song name
# A B C D E F G H I J K L M N O P Q R S T U V W X Y Z

Feeder - Shatter tab

-------------------------------------------------------------------------------
			     SHATTER - Feeder
-------------------------------------------------------------------------------
Tabbed by: Lordyboy
Email: chazz_lord@hotmail.co.uk
Tuning: Standard (EADGBe)

This is my first tab, but if you have any questions or improvements for it then you can 
get in touch through the email address above :)

INTRO:
Rhythm
----------------------------------------------------------------------|
----------------------------------------------------------------------|
-------55-55-55-555-------88-88-88-888--------------------------------|
-------55-55-55-555-------88-88-88-888--------------------------------|
-------33-33-33-333-------66-66-66-666--------------------------------|
----------------------------------------------------------------------|

Lead
----------------------------------------------------------------------|
----------------------------------------------------------------------|
------------------------------------------12-h-15-p-12----------------|
------------------------------------------------------13-15b----------|
----------------------------------------------------------------------|
----------------------------------------------------------------------|

VERSE
Rhythm
---------------------------------------------------------------------|
---------------------------------------------------------------------|
---------------------------------------------------------------------|
---1010-1010-1010-101010----1313-1313-1313-131313--------------------|
---1010-1010-1010-101010----1313-1313-1313-131313--------------------|
---8-8--8-8--8-8--8-8-8-----1111-1111-1111-111111--------------------|
   ^10s                     ^11s and 13s.
Lead
----------------------------------------------------------------------|
----------------------------------------------------------------------|
------------------------------------------12-h-15-p-12----------------|
------------------------------------------------------13-15b----------|
----------------------------------------------------------------------|
----------------------------------------------------------------------|

Chorus
---------------------------------------------------------------------------|
---------------------------------------------------------------------------|
---------------------------------------8-8-8-8-8-8-8-8-8-------------------|
-10-10-10-10-10-10-10-10-6-6-6-6-6-6-6-8-8-8-8-8-8-8-8-8-8-8-8-8-8-8-8-8-8-|
-10-10-10-10-10-10-10-10-6-6-6-6-6-6-6-6-6-6-6-6-6-6-6-6-8-8-8-8-8-8-8-8-8-|
--8--8--8--8--8--8--8--8-4-4-4-4-4-4-4-------------------6-6-6-6-6-6-6-6-6-|

SOLO/BRIDGE
Lead (Use lots of vibrato)
-----------------------------------------------------------------------|
-----------------------------------------------------------------------|
---/17--15--12--15----------17--15--12--15---------15-h-17-p-15--------|
-------------------13--15b-----------------13--15b---------------------|
-----------------------------------------------------------------------|
-----------------------------------------------------------------------|

-----------------------------------------------------------------------|
-----------------------------------------------------------------------|
---17--15--12--15------------------------------------------------------|
------------------13--15b----------------------------------------------|
-----------------------------------------------------------------------|
-----------------------------------------------------------------------|






Rhythm
-------------------------------------------          --------------------------------|
-------------------------------------------          --------------------------------|
---555-777-888----------------------------- x3 then: --------------------------------|
---555-777-888-66666666-33333333-----------          ----1313-1313-1313-1313---------|
---333-555-666-66666666-33333333-----------          ----1313-1313-1313-1313---------|
---------------44444444-11111111-----------          ----1111-1111-1111-1111---------|


STRUCTURE:
Intro x2,
Verse x4,
Chorus x2,
Intro x2,
Verse x4,
Chorus x3,
Solo x1,
Chorus x3.

************************************

| /   slide up
| \   slide down
| h   hammer-on
| p   pull-off
| ~   vibrato
| +   harmonic
| x   Mute note
| b   Bend
| pb  Pre-bend
| br  Bend release
| pbr Pre-bend release
| brb Bend release bend

************************************
Tap to rate this tab
# A B C D E F G H I J K L M N O P Q R S T U V W X Y Z