Song name
# A B C D E F G H I J K L M N O P Q R S T U V W X Y Z

Feeder - Pushing The Senses tab

Song Name: Pushing The Senses
Band: Feeder
Tuning: Standard
Capo: None

Intro 1
e|-------------------------------5---------------------------------|
B|----1-----1-----1-----1----0-------------------------------------|
G|--------0-----0-----0----0---5--------------x2-------------------|
D|---2--3-----3-----3----------------------------------------------|
A|-0---------------------------------------------------------------|
E|-----------------------------------------------------------------|

Intro 2
e|-----------------------------------------------------------------|
B|-----------------------------------------------------------------|
G|-----------------------------------------------------------------|
D|----------------------------------------77777777-1010101010101010|
A|-777-3333333333-55-777-3333333333-33-22-55555555-8-8-8-8-8-8-8-8-|
E|-555-1111111111-33-555-1111111111--------------------------------|


e|-----------------------------------------------------------------|
B|-----------------------------------------------------------------|
G|--9--10--10--10--------------------------------------------------|
D|---10--10--10--10-12---------------------------------------------|
A|-----------------------------------------------------------------|
E|-----------------------------------------------------------------|

Verse
e|-----------------------------------------------------------------|
B|-----------------------------------------------------------------|
G|--9--10--10--10--------------------------------------------------|
D|---10--10--10--10-12---------------------------------------------|
A|-----------------------------------------------------------------|
E|-----------------------------------------------------------------|

(Play the first three chords of the chorus in the Pre chorus)

Chorus
e|-----------------------------------------------------------------|
B|-----------------------------------------------------------------|
G|-----------------------------------------------------------------|
D|-----------------------------------------------------------------|
A|-777-3333333333-55-777-3333333333-33-22-777-3333333333-55--------|
E|-555-1111111111-33-555-1111111111-------555-1111111111-33--------|


e|-----------------------------------------------------------------|
B|-----------------------------------------------------------------|
G|-----------------------------------------------------------------|
D|-77777777-1010101010101010---------------------------------------|
A|-55555555-8-8-8-8-8-8-8-8----------------------------------------|
E|-----------------------------------------------------------------|

Solo
e|-------------8-8--12-12-------------------------------------------|
B|-10-10-10-1010-10-10-10----Play each chord three times------------|
G|-14-12-10-9--------------------------------------------------------|
D|---------------------------------------------------------x4--------|
A|-------------------------------------------------------------------|
E|-------------------------------------------------------------------|


Outro
e|-----------------------------------------------------------------|
B|-----------------------------------------------------------------|
G|-----------------------------------------------------------------|
D|-77777777-1010101010101010-7---Let ring--------------------------|
A|-55555555-8-8-8-8-8-8-8-8--5-------------------------------------|
E|-----------------------------------------------------------------|



Order:
Intro 1
Intro 2
Verse
Pre chorus
Chorus
Verse
Pre chorus
Chorus x2
Solo
Verse
Intro 1 x3
Chorus x2
Outro
Tap to rate this tab
# A B C D E F G H I J K L M N O P Q R S T U V W X Y Z