Song name
# A B C D E F G H I J K L M N O P Q R S T U V W X Y Z

Feeder - Youre My Evergreen tab

You're My Evergreen by Feeder
Tabbed by Tomr221

I know this song came out over a decade go but it's a good'un so I thought I'd have a go 
at trying to create a correct tab for it.

Intro/Verse
E|---------------------------------|
B|---------------------------------|
G|---------------------------------|
D|--3-3-3-3-3--5-5-5-5-5-5-5-------|
A|--3-3-2-2-2--5-5-5-5-5-5-5-------|
E|--1-1-0-0-0--3-3-3-3-3-3-3-------|

Pre-Chorus (I'm unsure about the part that slides up but this sounds close)
E|-----------------------------------------------------------|
B|-----------------------------------------------------------|
G|------------------------5--5--5--5--10-10-10-10-10-10------|
D|--7-7-7-7-7--3-3-3-3-3--x--x--x--x--x--x--x--x--x--x-------|
A|--7-7-7-7-7--3-3-3-3-3--3--3--3--3--3--8--8--8--8--8-------|
E|--5-5-5-5-5--1-1-1-1-1-------------------------------------|

Chorus
B|----------------------------------|
G|----------------------------------|
D|--3-3-/-7-7-/-5-5-5-5-5-5---------|
A|--3-3-/-7-7-/-5-5-5-5-5-5---------|
E|--1-1-/-5-5-/-3-3-3-3-3-3---------|

Bridge
E|-------------5-5-5-5-5--|
B|-------------5-5-5-5-5--|
G|-------------6-6-6-6-6--|
D|--7-7-7-9-7--7-7-7-7-7--|
A|--5-5-5-5-5--5-5-5-5-5--|
E|------------------------|

Obviously, the stuff tabbed is repeated multiple times for each section, you should 
easily be able to work it out for yourself.

Structure is simple stuff:
Verse
Pre-Chorus
Chorus
Verse
Pre-Chorus
Chorus
Bridge
Pre-Chorus (this one is extended and is twice the length of the other two)
Chorus
Tap to rate this tab
# A B C D E F G H I J K L M N O P Q R S T U V W X Y Z