Song name
# A B C D E F G H I J K L M N O P Q R S T U V W X Y Z

Feeder - Youre My Evergreen tab

Artist: Feeder
Song: You?re my Evergreen
Album: Yesterday Went Too Soon
Tabbed by: James Player (heavy_metal_aint_noise_pollution@hotmail.com)

Intro
E|----------------------------------|
B|----------------------------------|
G|----------------------------------|
D|--3-3-3-3-3-/-5-5-5-5-5-----------|
A|--3-3-3-3-3-/-5-5-5-5-3-----------|
E|--1-1-1-1-1-/-3-3-3-3-3-----------|

Verse
E|--8-8-8-8-8--7-7-7-7-7------------|
B|--8-8-8-8-8--8-8-8-8-8------------|
G|----------------------------------|
D|----------------------------------|
A|----------------------------------|
E|----------------------------------|

Pre-Chorus
E|-------------------------------------------------|
B|-------------------------------------------------|
G|------------------------5-5-5-5-5-5-5-5-5-5------|
D|--7-7-7-7-7--3-3-3-3-3--5-5-5-5-5-5-5-5-5-5------|
A|--7-7-7-7-7--3-3-3-3-3--3-3-3-3-3-3-3-3-3-3------|
E|--5-5-5-5-5--1-1-1-1-1---------------------------|

Chorus
B|----------------------------------|
G|----------------------------------|
D|--3-3-3-3-3-/-5-5-5-5-5-----------|
A|--3-3-3-3-3-/-5-5-5-5-3-----------|
E|--1-1-1-1-1-/-3-3-3-3-3-----------|

Bridge
E|-------------5-5-5-5-5--|
B|-------------5-5-5-5-5--|
G|-------------6-6-6-6-6--|
D|--7-7-7-7-7--7-7-7-7-7--|
A|--5-5-5-5-5-------------|
E|------------------------|
Tap to rate this tab
 
# A B C D E F G H I J K L M N O P Q R S T U V W X Y Z