Guitaretab - guitar tabs
Song name
# A B C D E F G H I J K L M N O P Q R S T U V W X Y Z

Feeder - Comfort In Sound tab

I couldn't find any accurate tabs of this song on here so i tried to figure it out myself.
Possibly the best Feeder song. Here it is, pretty easy to work through.
Hope it's good. Please rate.


e ----------7-7-------------------7-7-----------|
B -8-7-8-7-8-8--7-7-7-8--8-7-8-7-8-8--7-7-7-8---|
G ---------------7-7-7-9---------------7-7-7-9--|
D ----------------------------------------------|
A ----------------------------------------------|
E ----------------------------------------------|

Link between verses/prechorus (will be named one of the two throughout the song)

e ---------------------------|
B -10--10--10--10--8-8-8-8---|
G ---11--11--11--11-9-9-9-9--|
D ---------------------------|
A ---------------------------|
E ---------------------------|




e -----------------10--10--10--10------------------14--14--14--15----|
B -13--13--12--12------------------13--13--12--12--------------------|
G ---12--12--12--12--11--11--11--11--12--12--12--12--11--11--11--12--|
D -------------------------------------------------------------------|
B -------------------------------------------------------------------|
E -------------------------------------------------------------------|

e -----------------10--10--10--10--------------------------------------|
B -13--13--12--12--------------------13--13--13--13--13--13--13--13----|
G ---12--12--12--12--11--11--11--11----12--12--12--12--12--12--12--12--|
D ---------------------------------------------------------------------|
A ---------------------------------------------------------------------|
E ---------------------------------------------------------------------|




[ Tab from: ]
e --7---5-------------------------------------------|
B -8-8-7-7-5(hold)-5-7-7-7-7-5-5-5-5-7-7-7-7-5-5-7--|
G --------------------------------------------------|
D --------------------------------------------------|
A --------------------------------------------------|
E --------------------------------------------------|

e --7---5---------------------------------------------|
B -8-8-7-7-5(hold)-5-7-7-7-7-5-5-5-5-7-7-7-7-5-5-7-8--|
G ----------------------------------------------------|
D ----------------------------------------------------|
A ----------------------------------------------------|
E ----------------------------------------------------|




Verse x1 with ending:

e ----------7-7------------------|
B -8-7-8-7-8-8--7-7-7-7-7-7-7-7--|
G ---------------7-7-7-7-7-7-7---|
D -------------------------------|
A -------------------------------|
E -------------------------------|

There is a half decent bass tab on here to play along with, i'm not much of a bas player 
i won't try and put on another tab but this tab should give you a stating point :).


We fall right in and suffer the sins
Try to pull things round when the air starts to thin
We nurse regrets, restricted in our own belief
A new disease

We shake new hands, the victims of fate
We tread new ground misfortune conveys
You tear yourself apart
Wishing to be born again
A different man

Comfort in sound
Its all around
Ease back the strain
Come heal your pain
Comfort in sound
Its all around you now

Comfort in sound

We suffer love together as one
An empty heart with nowhere to turn
We find ourselves looking back another way
A brand new day



Solution gone, emotions ablaze
A life so strong just faded away
You find yourself searching for a quick release
A new belief


Comfort in sound
Related for Comfort In Sound tab