Song name
# A B C D E F G H I J K L M N O P Q R S T U V W X Y Z

Feeder - Pushing The Senses tab

----------------------------------------------------------------------------
			 FEEDER - Pushing The Senses
----------------------------------------------------------------------------
Tabbed by: Various, submitted by Jimmy the Exploder
Email: soccerdude_7134@hotmail.com

I, like most people, prefer to have full album tabs instead of several ones.

TRACKLISTING:

Feeling a Moment
Bitter Glass
Tumble And Fall
Tender
Pushing The Senses
Frequency
Morning Life
Pilgrim Soul
Pain On Pain
Dove Grey Sands

----------------
FEELING A MOMENT
----------------
Tabbed by: Shiruzu
Email: letaldj@libero.it

     A    E    B   C#m
e|---0----0----2----4---|
B|---2----0----4----5---|
G|---2----1----4----6---|
D|---2----2----4----6---|
A|---0----2----2----4---|
E|---X----0----2----4---|

intro: A   E   B x2
   
       C#m   A    E    B     
   
       C#m   A    B    

Verse 1

 A               E              B 
    feeling the moment slip away 
 A                E                      B
    loosing direction, you're loosing faith
            C#m             A
    you're wishing for someone 
                E              B
    feeling it all begin to slide
         C#m   A    B
    am i just like you?
              C#m   A  B
    all the things you do can't help myself

Chorus 1
    
 A               E                   B
    How do you feel when there's no sun?
 A                    E                  B
    and how will you be when rain cloud come?
        C#m             A
    and pull you down again
                  E                    B
    how will you feel when there's no one?
         C#m   A    B
    am i just like you?

break

    A   E   B x2

Verse 2
 
 A              E                  B
    turning to face what you've become
 A                E          B
    buried the ashes of someone
    C#m               A
    broken by the strain
               E                  B
    trying to fill that space inside
         C#m   A    B
    am i just like you?
              C#m   A  B
    all the things you do can't help myself

Chorus 2
   
 A               E                   B
    How do you feel when there's no sun?
 A                    E                  B
    and how will you be when rain cloud come?
        C#m             A
    and pull you down again
                  E                    B
    how will you feel when there's no one?
         C#m   A    B
    am i just like you?
              C#m   A   B
    all the things you do
Bridge
   
               C#m 
    don't ever feel
                  A
    that you're alone
               E
    i'd never let you down
               B
    i'd never leave you dry
               C#m
    don't fall apart
                 A
    don't let it go
               E
    carry the notion
               B
    carry the notion back

    to me

Verse 3
  
   A   E   B x2

 A               E              B 
    Feeling the moment slip away
 A               E              B 
    feeling the moment slip away

Chorus 3

 A   E   B x2
   
 C#m   A    E    B     
   
 A               E                   B
    How do you feel when there's no sun?
 A                    E                  B
    and how will you be when rain cloud come?
        C#m             A
    and pull you down again
                  E                    B
    how will you feel when there's no one?
         C#m   A    B
    am i just like you?

------------
BITTER GLASS
------------
capo 4th fret

notes & chords are relative to capo

gtr 1:intro & verse
   Em                              C
e|-----------------------------------------------------------------|
B|-------1-----------------1-------------1-----------------1-------|
G|---0-0-0-----------0-0-0-0-------0-0-0-0-----------0-0-0-0-------|
D|-2-2-2-2-2-2-2-2-2-2-2-2-2-2-2-2-2-2-2-2-2-2-2-2-2-2-2-2-2-2-2-2-|
A|-2-2-2-2-2-2-2-2-2-2-2-2-2-2-2-2-3-3-3-3-3-3-3-3-3-3-3-3-3-3-3-3-|
E|-----------------------------------------------------------------|
then
   Am                              C
e|-----------------------------------------------------------------|
B|-------1-----------------1-------------1-----------------1-------|
G|-0-0-0-0-----------0-0-0-0-------0-0-0-0-----------0-0-0-0-------|
D|-2-2-2-2-2-2-2-2-2-2-2-2-2-2-2-2-2-2-2-2-2-2-2-2-2-2-2-2-2-2-2-2-|
A|-0-0-0-0-0-0-0-0-0-0-0-0-0-0-0-0-3-3-3-3-3-3-3-3-3-3-3-3-3-3-3-3-|
E|-----------------------------------------------------------------|

gtr2:play these riffs over the intro & the verse

e|--3-2------|x2
B|------0-0--|
G|-----------|
D|-----------|
A|-----------|
E|-----------|
then
e|--3-2--5--|
B|----------|
G|----------|
D|----------|
A|----------|
E|----------|

gtr1:chorus
   C5            E5           D5           C5
e|------------------------------------------------------|
B|------------------------------------------------------|
G|-5555555555555/999999999999\777777777777\555555555555-|
D|-xxxxxxxxxxxxx-xxxxxxxxxxxx-xxxxxxxxxxxx-xxxxxxxxxxxx-|
A|-3333333333333/777777777777\555555555555\333333333333-|
E|------------------------------------------------------|

gtr2: play these riffs at the 2nd chorus(listen carefully to get 
which 1 you have to play)

e|-8-8-8-7----|
B|----------8-|
G|------------|
D|------------|
A|------------|
E|------------|

e|-10-10-10-9-8-|
B|--------------|
G|--------------|
D|--------------|
A|--------------|
E|--------------|

gtr1:bridge:same as chorus


Play in this order:

Intro x2
Verse x3
chorus
verse x3
chorus x3 (at the 2nd time gtr2 comes in)
verse x3
bridge
chorus x3 (at the 2nd time gtr2 comes in)
end on C5

---------------
TUMBLE AND FALL
---------------
Tabbed by Shiruzu

Capo on 6th fret
Notes r relative to capo

Acoustic gtr Chords:

e|--3----0----0----0---0--|
B|--3----0----1----1---2--|
G|--0----0----2----0---3--|
D|--0----2----2----2---0--|
A|--2----2----0----3---x--|
E|--3----0----0----3---x--|
    G    Em   Am   C  Dsus2

Electric gtr Chords:

e|-------------------------|
B|-------------------------|
G|------------5----7-------|
D|--5----2----5----7----7--|
A|--5----2----3----5----7--|
E|--3----0--------------5--|
    G5   E5   C5   D5   A5

Intro (Acoustic): G   Em
                  G   Em

Verse 1 (Acoustic):

G                Em  
   All this for nothing 
              G
   yeah yeah yeah
                Em
   praying and hoping
                Am
   fooling yourself


Pre-Chorus 1 (Acoustic):
                   
                      C
   you know that you can
                Am
   give love a reason
                 C
   give love a chance


Chorus 1 (Both Electric and Acoustic):

                  G5(G)
   We tumble and Fall
                E5(Em)
   together we crawl
                C5(C)    
   forever will be
D5(Dsus2)             G5(G) 
   tumble and fall

Verse 2 (Acoustic): same as verse 1

Pre-Chorus 2 (Acoustic): same as pre-chorus 1

Chorus 2 (Both): Same as chorus 1

Bridge (Both):

                   E5(Em)  A5(Am)
   life's not the same
C5(C)         D5(Dsus2)      E5(Em)
   since the day you went away
        A5(Am) C5
   i recall
               D5(Dsus2)      E5(Em)    A5(Am)  C5(C)
   like that drops of summer rain that fell on me
         A5(Am)     C5(C)
   come back to me
         G5(G)
   come back to me

Break (both):

    G (G5)    Em (E5)
    G (G5)    Em (E5) 
    Am (A5)   C  (C5)
    Am (A5)   C  (C5)

Chorus 3 (both): 
                  G5(G)
   We tumble and Fall
                E5(Em)
   together we crawl
                C5(C)    
   forever will be
D5(Dsus2)      G5(G) 
   tumble and fall
                E5(Em)
   together we crawl
                C5(C)    
   forever will be
D5(Dsus2)      G5(G) 
   tumble and fall

Break 2:

    G   Em x4 (only acoustic)

    G   Em x4 (both)

End on

------
TENDER
------
Tabbed by Shiruzu

Intro: C Am F x2

Verse 1

   C  
  Heache
                    Am         F
  can't watch you brake and shatter
   C
  saved
                  Am       F 
  we've lives to make us better

Pre-chorus 1

                   Am     F
  i'm letting you know
                C
  cleansing my soul
                     Am
  been letting you know
        F
  for days

Chorus

C            G                       F     
  Turn over everything time can heal us again
                      C
  i'm tender in your arms
              G
  reaching inside of me
                 F
  bringing the love on me

  the loneliness has gone
 
Break: C Am F

Verse 2
 
   C
  Faith
                  Am        F
  we're roads to take together
   C 
  days
          Am  
  lying awake  
        F
  remember 

Pre-chorus 2

                   Am     F
  i'm letting you know
                C
  cleansing my soul
                     Am
  been letting you know
        F
  for days

Chorus 2

C            G                       F     
  Turn over everything time can heal us again
                      C
  i'm tender in your arms
              G
  reaching inside of me
                 F
  bringing the love on me

  the loneliness has gone

Bridge:  C  G  F  
     
         G  F

Break: C  Am  F

Pre-chorus 3

                   Am     F
  i'm letting you know
               C
  plans in my soul
                     Am
  been letting you know
        F
  for days

Chorus 3

C            G                       F     
  Turn over everything time can heal us again
                      C
  i'm tender in your arms
              G
  reaching inside of me
                 F
  bringing the love on me
                        C    G    F
  the loneliness has gone
  (continue playing F)
  the loneliness has gone

end on C

------------------
PUSHING THE SENSES
------------------
Tabbed by Westone Freak

Intro

E|---------------------5---| 
B|---1----1--1--1----------| 
G|-------0--0--0----4-5----| 
D|--2---3--3--3----5-------| 
A|-0-----------------------| 
E|-------------------------|      x2 


Main Riff

     Am   F         G
E|---------------------------|
B|--111----------------------|
G|--222----------------------|
D|--222-33333333333-55-------|
A|--000-33333333333-55-------|
E|------11111111111-33-------|

    Am  F           C  G   D       F
E|----------------------------------------------------|
B|--111-----------------------------------------------|
G|--222-------------55----77777777-1010101010101010---|
D|--222-33333333333-55-55-77777777-1010101010101010---|
A|--000-33333333333-33-55-55555555-8 8 8 8 8 8 8 8----|
E|------11111111111----33-----------------------------|

Riff 2

E|--------------------------------------------| 
B|-5--6--6--6------5--6--6--6-----------------| 
G|--5--5--5--5-7----5--5--5--5-7--------------| 
D|--------------------------------------------| 
A|--------------------------------------------| 
E|--------------------------------------------| 

Verse

     Am   F         G
E|---------------------------|
B|--111----------------------|
G|--222----------------------|
D|--222-33333333333-55-------|
A|--000-33333333333-55-------|
E|------11111111111-33-------|

Pre Chorus
(not sure)

Chorus

     Am   F         G
E|---------------------------|
B|--111----------------------|
G|--222----------------------|
D|--222-33333333333-55-------|
A|--000-33333333333-55-------|
E|------11111111111-33-------|

    Am  F           C  G   Am   F         G    D        F
E|---------------------------------------------------------------------|
B|--111-------------------111------------------------------------------|
G|--222-------------55----222-----------------77777777-101010101010----|
D|--222-33333333333-55-55-222-33333333333-555-77777777-101010101010----|
A|--000-33333333333-33-55-000-33333333333-333-55555555-8 8 8 8 8 8 ----|
E|------11111111111----33-----11111111111-333--------------------------|


solo/interlude bit

E|-------------------------------------| 
B|10-10-10-8-8-8-6-6-6-5-5-5-5-5-5-5---| 
G|-------------------------------------| 
D|-------------------------------------| 
A|-------------------------------------|
E|-------------------------------------|

E|-------------------------------------------|
B|-13 13 13 13 13 13 13----------------------| 
G|-14 14 14 14 14 14 14---1010101010101010---| 
D|-14 14 14 14 14 14 14---1010101010101010---| 
A|------------------------8 8 8 8 8 8 8 8 ---| 
E|-------------------------------------------|

---------
FREQUENCY
---------
Tabbed by Shiruzu

Chords:                  
   F   G#  A#  Dm  C   G---G
e|-1---4---6---1---0---3---3-|
B|-1---4---6---3---1---3---3-|
G|-2---5---7---2---0---0---4-|
D|-3---6---8---0---3---0---5-|
A|-3---6---8---x---2---2---5-|
E|-1---4---6---x---x---3---3-|

play the G chord as you wish(normal or barrč)

Intro: F  G#  A#  F x2


F         G#
  Come on in 
   A#        F
I hear your voice
             G#
Change the frequency 
     A#         F
And make that choice 

        G#
Constitution 
 A#        F 
Find new ground 

              Dm
You've gotta know 
    C             G      A#    
I think about you every day 
Dm               C              G          
  You're lying awake on top of silver clouds 
         A#
Sending Love back down 

Dm      A#   G   A# 
  It's real love
Dm      A#   G   A# 
  It's real love
Dm      A#   G   A# 
  It's real love
           G 
Can't you feel it 
            A#
Can't you breathe it in 


Break: F  G#  A#  F x2

F         G#
  Come on in 
   A#       F
I hear you sing 
     G#
All together 
 A#         F
Different skin 
      G#
Superstition 
  A#   F
Prophecy 

              Dm
You've gotta know 
    C             G      A#    
I think about you every day 
Dm               C              G          
  You're lying awake on top of silver clouds 
         A#
Sending Love back down


Dm      A#   G   A# 
  It's real love
Dm      A#   G   A# 
  It's real love
Dm      A#   G   A# 
  It's real love
           G 
Can't you feel it 
            A#
Can't you breathe it in  

Outro: F  G#  A#  F x2

End on F

------------
MORNING LIFE
------------

Intro/Verse:
B     G     A
B     G     E

Repeat 2x

B
A new day has begun
G                         A
And taken us now
B
Morning life is here
G                                  E
Touch, sight and sound

Pre-Chorus:
G    B     A

G                 B               A
But you feel nothing is real
G                                   B                 A
Your flesh and bone, But nothing is real

Chorus:
G  D  A  E

G    D  A                        E             G  D
Today, this could be the only day
A                              E
Cant let the moment get away
G    D  A                        E             G  D
Cause this could be the only way
A                E
So call on , call on me,

Middle: Not sure i dont actually think there's any guitars playin just a sampler.

Solo:
Not 100% but close enough

e-------------------------------------------------------------------|
b-------------------------------------------------------------------|
g--12-12-12-12-14-12-11-11-11-11-------9-9-9-9---14-14-12-11-9-9----|
d----------------------------------12-12----------------------------|
a-------------------------------------------------------------------|
e-------------------------------------------------------------------|


e-------------------------------------------------------------------|
b-------------------------------------------------------------------|
g--12-12-12-12-14-12-11-11-11-11-------9-9-9-9-7-6-4-2-0------------|
d---------------------------------12--12----------------------------|
a-------------------------------------------------------------------|
e-------------------------------------------------------------------|

End by pickin G D and A Chords

------------
PILGRIM SOUL
------------
Tabbed by Shiruzu

Intro

Guitar 1: riff 1
e|---------------------------------------------------------------------|x2
B|---------------------------------------------------------------------|
G|---------------------------------------------------------------------|
D|---------------------------------------------------------------------|
A|---9-9-----9-----9-----9-----9-9-9-6-6-----6-----6-----6-----6-6-6---|
E|---7-7-7-7-7-7-7-7-7-7-7-7-7-7-7-7-4-4-4-4-4-4-4-4-4-4-4-4-4-4-4-4---|

Guitar 3:(riff 1) at the 2nd time play this
e|----------------------|
B|----------------------|
G|---17h20~----13h16~---|
D|----------------------|
A|----------------------|
E|----------------------|

Verse 1

Guitar 1: 
e|---------------------------------------------------------------------|
B|---------------------------------------------------------------------|
G|---------------------------------------------------------------------|
D|---------------------------------------------------------------------|
A|---9-9-----9-----9-----9-----9-9-9-6-6-----6-----6-----6-----6-6-6---|
E|---7-7-7-7-7-7-7-7-7-7-7-7-7-7-7-7-4-4-4-4-4-4-4-4-4-4-4-4-4-4-4-4---|

Guitar 2
e|-------------------------------------------------------------------------|
B|-------------------------------------------------------------------------|
G|-------------------------------------------------------------------------|
D|-13-13-13-11-11-11-9-9-9-8-8-8-8-8---13-13-13-11-11-11-9-9-9-8-8-8-8-8-8-|
A|-------------------------------------------------------------------------|
E|-------------------------------------------------------------------------|
   .  .  .  .  .  .  . . . . . . . .   .  .  .  .  .  .  . . . . . . . . .

a 3d guitar keeps playing riff 1

Guitar 1:
e|----------------------------------|
B|----------------------------------|
G|----------------------------------|
D|--99999999999999--66666666666666--|
A|--99999999999999--66666666666666--|
E|--77777777777777--44444444444444--|


Repat verse 1 twice

Pre-Chorus 1

Guitar 1: 
e|------------------------------------|x2
B|------------------------------------|
G|--666666666666666-------------------|
D|--666666666666666--222222222222222--|
A|--444444444444444--222222222222222--|
E|-------------------000000000000000--|

Guitar 2
e|-------------------------------------------|x2
B|--5--4----5-4----5-4----5--4----5-4----5-4-|
G|-4-4-----4------4------4-4-----4------4----|
D|-------------------------------------------|
A|-------------------------------------------|
E|-------------------------------------------|


Chorus 1

Guitar 1
e|---------------------------------------------------------------|
B|---------------------------------------------------------------|
G|--99999999999999-----------------88888888888888-9999999999999--|
D|--99999999999999-999999999999999-88888888888888-9999999999999--|
A|--77777777777777-999999999999999-66666666666666-7777777777777--|
E|-----------------777777777777777-------------------------------|

Guitar 2
e|---------------------------------------------------------------|
B|---------------------------------------------------------------|
G|--99999999999999-----------------88888888888888----------------|
D|--99999999999999-999999999999999-88888888888888-2222222222222--|
A|--77777777777777-999999999999999-66666666666666-2222222222222--|
E|-----------------777777777777777----------------0000000000000--|


Break

Guitar 1:
e|---------------------------------------------------------------------|
B|---------------------------------------------------------------------|
G|---------------------------------------------------------------------|
D|---------------------------------------------------------------------|
A|---9-9-----9-----9-----9-----9-9-9-6-6-----6-----6-----6-----6-6-6---|
E|---7-7-7-7-7-7-7-7-7-7-7-7-7-7-7-7-4-4-4-4-4-4-4-4-4-4-4-4-4-4-4-4---|

Guitar 2
e|-------------------------------------------------------------------------|
B|-------------------------------------------------------------------------|
G|-------------------------------------------------------------------------|
D|-13-13-13-11-11-11-9-9-9-8-8-8-8-8---13-13-13-11-11-11-9-9-9-8-8-8-8-8-8-|
A|-------------------------------------------------------------------------|
E|-------------------------------------------------------------------------|
   .  .  .  .  .  .  . . . . . . . .   .  .  .  .  .  .  . . . . . . . . .

Verse 2

Guitar 1: 
e|---------------------------------------------------------------------|
B|---------------------------------------------------------------------|
G|---------------------------------------------------------------------|
D|---------------------------------------------------------------------|
A|---9-9-----9-----9-----9-----9-9-9-6-6-----6-----6-----6-----6-6-6---|
E|---7-7-7-7-7-7-7-7-7-7-7-7-7-7-7-7-4-4-4-4-4-4-4-4-4-4-4-4-4-4-4-4---|

Guitar 2
e|-------------------------------------------------------------------------|
B|-------------------------------------------------------------------------|
G|-------------------------------------------------------------------------|
D|-13-13-13-11-11-11-9-9-9-8-8-8-8-8---13-13-13-11-11-11-9-9-9-8-8-8-8-8-8-|
A|-------------------------------------------------------------------------|
E|-------------------------------------------------------------------------|
   .  .  .  .  .  .  . . . . . . . .   .  .  .  .  .  .  . . . . . . . . . 

gtr 3:same riff
 
Guitar 1:
e|----------------------------------|
B|----------------------------------|
G|----------------------------------|
D|--99999999999999--66666666666666--|
A|--99999999999999--66666666666666--|
E|--77777777777777--44444444444444--|

repeat verse 2 twice

Pre-Chorus 2: same as Pre-Chorus 1


Chorus 2

Guitar 1
e|---------------------------------------------------------------|x2
B|---------------------------------------------------------------|
G|--99999999999999-----------------88888888888888-9999999999999--|
D|--99999999999999-999999999999999-88888888888888-9999999999999--|
A|--77777777777777-999999999999999-66666666666666-7777777777777--|
E|-----------------777777777777777-------------------------------|

Guitar 2
e|---------------------------------------------------------------|x2
B|---------------------------------------------------------------|
G|--99999999999999-----------------88888888888888----------------|
D|--99999999999999-999999999999999-88888888888888-2222222222222--|
A|--77777777777777-999999999999999-66666666666666-2222222222222--|
E|-----------------777777777777777----------------0000000000000--|

Guitar 3 (at the 2nd time) listen to the song and u'll get what i mean
e|---------------------------------------------|
B|-16b17(x10 very fast)r16(x10)\11(x10)\9(x10)-|
G|---------------------------------------------|
D|---------------------------------------------|
A|---------------------------------------------|
E|---------------------------------------------|
Bridge

Guitar 1                      
e|----------------------|x2 e|---------| end on this the 2nd time
B|----------------------|   B|---------|
G|------999-----888888--|   G|---------|
D|--666-999-999-888888--|   D|--6-777--|
A|--666-777-999-666666--|   A|--6-777--|
E|--444-----777---------|   E|--4-555--|
                    
                            
then gtr 2 plays (riff2)

e|---------------------|
B|----4----4-----4---4-|
G|---4----4-----4---4--|
D|--6----6-----6---6---|
A|-6----------6--------|
E|---------------------|

u can also hear a 3d guitar playing this(while gtr 2 plays riff 2)

e|------------------|
B|------------------|
G|------------------|
D|------------------|
A|--11--9-11-13b14--|
E|------------------|


then gtr 1
e|------------------|
B|------------------|  
G|---9---88888888---|   
D|---9-9-88888888---|   
A|---7-9-66666666---|  
E|-----7------------|

then gtr 2
e|---------------------|
B|----4----4-----4---4-|
G|---4----4-----4---4--|
D|--6----6-----6---6---|
A|-6----------6--------|
E|---------------------|

Gtr 3: same as before

then gtr 1
e|---------------------|
B|---------------------|  
G|---9---8888----------|   
D|---9-9-8888--6-777---|   
A|---7-9-6666--6-777---|  
E|-----7-------4-555---|

Repeat riff 1 (only once) and verse 1, then

Guitar 1:
e|----------------------------------|x2
B|----------------------------------|
G|----------------------------------|
D|--99999999999999--66666666666666--|
A|--99999999999999--66666666666666--|
E|--77777777777777--44444444444444--|

repeat Pre-Chorus

repeat Chorus 2

then

Guitar 1                      
e|----------------------|x2 e|---------| end on this the 2nd time
B|----------------------|   B|---------|
G|------999-----888888--|   G|---------|
D|--666-999-999-888888--|   D|--6-777--|
A|--666-777-999-666666--|   A|--6-777--|
E|--444-----777---------|   E|--4-555--|

------------
PAIN ON PAIN
------------
Tabbed by Shiruzu

Chords:
   C   Dm or Dm    G or G    F    Am   Em
e|-0----1-----5----3----3----1----0----0-|
B|-1----3-----6----0----3----1----1----0-|
G|-0----2-----7----0----4----2----2----0-|
D|-2----0-----7----0----5----3----2----2-|
A|-3----x-----5----2----5----3----0----2-|
E|-3----x-----5----3----3----1----x----0-|

Standard Tuning

Intro: C  Dm  G  F
       C  Dm  Am Em

  C       Dm
Stay for life
     G 
For life
F 
All you discover 
  C       Dm
Stay for life
     Am  
For life
      Em 
This moment together 
     Dm      F
To heal yourself 
           Dm
Love can heal
 F     
Can't watch you fall 

C    Dm      Am
    Pain on pain
 Am                      C 
Don't come back here again 
  Dm      Am     F(let ring)
Shame on pain 

Took the last breath away 

Break: C   Dm   G   F
 
 C        Dm
Save yourself 
     G
Yourself 
 F
lost for a second 
 C        Dm
Save yourself 
     Am 
Yourself 
 Em
bury the concious 
     Dm       F
And heal yourself 
          Dm 
You can heal 
 F 
Can't watch you fall 


C    Dm      Am
    Pain on pain
 Am                      C 
Don't come back here again 
  Dm      Am
Shame on pain 
 F                     C
Took the last breath away 
 Dm      Am   F  
Pain on pain 

Bridge: F  Dm  Am  C ( x2) 
 
pick the strings this way:

   F         Dm        Am        C
e|-1----1----1----1----1----1----1----1-----|x2
B|---1----1----3----3----1----1----1----1---|
G|-----2----2----2----2----2----2----0----0-|
D|------------------------------------------|
A|------------------------------------------|
E|------------------------------------------|

Pain (x4) 
Yeah 

Break: C   Dm   G   F

 C        Dm
Wait for love 
     G
For love 
  F               
You know it can happen 
 C        Dm 
Wait for love 
     Am
For love 
     Em 
The touch of a hand 
    Dm       F      
To heal yourself 
          Dm 
You can heal 
 F 
Can't watch you fall  


C    Dm      Am
    Pain on pain
 Am                      C 
Don't come back here again 
  Dm      Am
Shame on pain 
 F                     C
Took the last breath away 
 Dm      Am   F  
Pain on pain 

---------------
DOVE GREY SANDS
---------------
Tabbed by Shiruzu


Capo 5th fret
notes relative to capo

Intro:
     D       Dsus2
e|---2---2---0---0----|x2
B|----3---3---3---3---|
G|-----2---2---2---2--|
D|--0---0---0---0-----|
A|--------------------|
E|--------------------|

Verse
     D       Dsus2    x2  C               G
e|---2---2---0---0----|---0---0---0---0----0---0---0---0-----| All x2
B|----3---3---3---3---|----3---3---3---3----3---3---3---3----|
G|-----2---2---2---2--|-----2---2---2---2----2---2---2---2---|
D|--0---0---0---0-----|--------------------------------------|
A|--------------------|--3---3---3---3-----------------------|
E|--------------------|-------------------3---3---3---3------|

Pre-Chorus

    D       Dsus2    x2 C
e|--2---2---0---0----|----------------------------------------| All x2
B|---3---3---3---3---|--5----5----5----5----5----5----5----5--|
G|----2---2---2---2--|---5----5----5----5----5----5----5----5-|
D|-0---0---0---0-----|-5----5----5----5----5----5----5----5---|
A|-------------------|----------------------------------------|
E|-------------------|----------------------------------------|

Chorus

you can play these chords using an arpeggio (follow the previous tabs to
understand how to pick the strings), but i prefer playing it using standard
chords


D
Led by devotion
      C
celebrate
      Em
celebrate
        D
celebration
 C         G
dove grey sands
D
Led by devotion
      C
celebrate
      Em
celebrate
       D
celebrate now
 C         G
dove grey sands

repeat intro
repeat verse
repeat pre-chorus
repeat chorus

Bridge

(Feeling like it's over...)

  F               C     Em7       Dm              C       G
e|-0---0---0---0---0---0---0---0---1---1---1---1---0---0---0---0---|x2
B|--1---1---1---1---1---1---1---1---3---3---3---3---1---1---1---1--|
G|---2---2---2---2---0---0---0---0---2---2---2---2---0---0---0---0-|
D|3---3---3---3-------------------0---0---0---0--------------------|
A|----------------3---3---2---2-------------------3---3------------|
E|--------------------------------------------------------3---3----|

repeat verse x 3

outro:
     D       Dsus2
e|---2---2---0---0----|x2
B|----3---3---3---3---|
G|-----2---2---2---2--|
D|--0---0---0---0-----|
A|--------------------|
E|--------------------|

then
   D        Dsus2
e|---2---2---0---0----2-|
B|----3---3---3---3-----|
G|-----2---2---2---2----|
D|--0---0---0---0----0--|
A|----------------------|
E|----------------------|

There! Rate it. I think the Morning Life tab isnt brilliant, but its the best i can do.
Tap to rate this tab
# A B C D E F G H I J K L M N O P Q R S T U V W X Y Z