Song name
# A B C D E F G H I J K L M N O P Q R S T U V W X Y Z

Feeder - Sex Type Drug tab

Band: Feeder
Song: Sex Type Drug
Album: Buck Rogers CDS

Standard Tuning

For the main riff & verses, strum these chords:

E|-----------------|
B|-----------------|
G|----------x---x--|
D|--2---x---x---x--|
A|--2---5---4---5--|
E|--0---3---5---6--|

Chorus:

    E   G   D   A
E|-----------------|
B|-----------------|
G|----------7------|
D|--2---5---7---7--|
A|--2---5---5---7--|
E|--0---3-------5--|


break:
E|-----------------------------------------------|x2
B|-----------------------------------------------|
G|-----------------------------------------------|
D|-----------------------------------------------|
A|-0h5-0h5-0h5-0h5-0h5-0h5-0h5-0h5-0h5-0h5-0h5h7-|
E|-----------------------------------------------|

that's pretty simple! enjoy!
Tap to rate this tab
# A B C D E F G H I J K L M N O P Q R S T U V W X Y Z