Song name
# A B C D E F G H I J K L M N O P Q R S T U V W X Y Z

Feeder - Space Age Hero tab

Band: Feeder
Song: Space Age Hero
Album: Insomnia cds

Verse:

Gtr1:
E|-----------------------------------------------------|
B|--8--8--8--8--8--8--8-7-5----8--8--8-7-8-7-8s-10-10--|
G|--------------------------7--------------------------|
D|-----------------------------------------------------|
A|-----------------------------------------------------|
E|-----------------------------------------------------|

Gtr2: it's a little hard to hear this

E|--9-------11------|
B|-----8--------8---|
G|------------------|
D|------------------|
A|------------------|
E|------------------|

Chorus:

Gtr1: strum these chords:

A5  C5  G5  D5

Gtr2: 

E|----------------------------|play over and over
B|----------------------------|
G|--14-14-14-14--14-14-14-14--|
D|----------------------------|
A|----------------------------|
E|----------------------------|

Bridge:

Gtr1:

Strum F#5

Gtr2:
E|------------------------------------|repeat as needed
B|------------------------------------|
G|--xx8/9--xx8/9---xx8/9---xx8/9\8-8--|
D|------------------------------------|
A|------------------------------------|
E|------------------------------------|

Play these parts following the song

That's a very simple song!hope u enjoy it!
Tap to rate this tab
 
# A B C D E F G H I J K L M N O P Q R S T U V W X Y Z