Song name
# A B C D E F G H I J K L M N O P Q R S T U V W X Y Z

Feeder - 21st Century Meltdown tab

Band: Feeder
Song: 21st Century Meltdown
Album: Buck Rogers CDS

Tuning: Drop D

Chords:

    D   C9  Em7
E|--2---3---3---|
B|--3---3---3---|
G|--2---0---0---|
D|--0---0---2---|
A|------3---2---|
D|----------x---|

Intro & Verse:

Gtr 1:

E|------------------------------------5------|
B|--------------------------------------5----|
G|------0---------0---------0-------------7--|
D|----4---4-----4---4-----4---4--------------|
A|------------2---------3-----------5--------|
D|--0-----------------------------5----------|

Gtr 2:


E|------------------------------------------|
B|--3---5-----8---7-----3---5-----8---7-----|
G|----7---7-----7---7-----7---7-----7---7---|
D|------------------------------------------|
A|------------------------------------------|
D|------------------------------------------|



Chorus:

 D          C9        Em7        C9
'Cause its falling again catch me,
D      C9            Em7           C9
We've swallowed the pills and the pain,
D     C9       Em7              C9
It's falling again, but no one sees
        D    C9      Em7    C9
It's a 21st century meltdown

Another easy song! enjoy!
Tap to rate this tab
# A B C D E F G H I J K L M N O P Q R S T U V W X Y Z