Guitaretab - guitar tabs
Song name
# A B C D E F G H I J K L M N O P Q R S T U V W X Y Z
Home / F / Feeder / Murmer tab

Feeder - Murmer tab

Band: Feeder
Song: Murmer
Album: Feeling A Moment CDS

Thanks to Matty from Feederweb for this amazing song!

standard tuning 4 both guitars

Chords:
e|-x----x---x---x---x----x---x-------------|
B|-3----3---3---3---3----3---3-------------|
G|-2----2---0---0---2----2---0--2--4-----7-|
D|-0----2---0---2---0----0---2--2--4--5--7-|
A|-2----0---2---2---x----x---3--0--2--5--5-|
E|-x----x---3---x---2----x---x--x--x--3--x-|
  Bm7 Asus4 G  Em7 D/F#  D   C  A5 B5 G5 D5


Intro & Verse

gtr1: play these chords

       Bm7 Asus4 G Em7 

      repeat till pre-chorus

gtr2:
     e|---------------------------------------7---------|
     B|--7-----5------7--------------5------------------|
     G|-------------------------4--------------------7--|
     D|-------------------------------------------------|
     A|-------------------------------------------------|
     E|-------------------------------------------------|
  
      repeat till pre-chorus

while gtr1's playing u can hear a 3d guitar 
picking the relative open chords (B5, A5, G5, E5)

Pre-Chorus

gtr1: play this chords progression once 
[ Tab from: http://www.guitaretab.com/f/feeder/58872.html ]
       D/F# G Bm7 Asus4 D/F# G

gtr2:
     e|---------------------5-----------------------|
     B|--3--5----3--5----5-------3--5----3--5---3~--|
     G|---------------------------------------------|
     D|---------------------------------------------|
     A|---------------------------------------------|
     E|---------------------------------------------|

Chorus

gtr1: 

       Asus4 Bm7 G D x3
       
       then  Bm7 G

gtr2: 
       A5  B5  G5  D5 x3

       then  B5  G5

Bridge

gtr1:   
        D  C  Bm7  G  x3

gtr2:  

      e|-------------------------------------------------------------------|
      B|-7--7-8-10-8-7\5\3--0\8---7--7-8-10-8-7\5\3\1---0--/7--5--8---7\3~-|
      G|-------------------------------------------------------------------|
      D|-------------------------------------------------------------------|
      A|-------------------------------------------------------------------|
      E|-------------------------------------------------------------------|

Song Progression:

Intro
Verse
Pre-Chorus
Chorus
Verse
Pre-Chorus
Chorus
Bridge
Pre-Chorus
Chorus (repeat twice the last part)

that's it!enjoy!
Related for Murmer tab
Murmer chords by Feeder