Song name
# A B C D E F G H I J K L M N O P Q R S T U V W X Y Z

Feeder - Insomnia Live tab

Band: Feeder
Song: Insomnia

This is the live version from Bizarre' 2001

Drop D Tuning

Intro&Verses:
   
   E|----------------------------------|
   B|----------------------------------|
   G|-555555--10101010--10101010101010-| 
   D|-555555--10101010--10101010101010-| 
   A|-333333--0-0-0-0---8-8-8-8-8-8-8--|
   D|-333333--0-0-0-0---8-8-8-8-8-8-8--|

  
   Pre-Chorus:

   E|----------------------------------|
   B|----------------------------------|
   G|-1010-1010101010------------------|
   D|-1010-1010101010------------------|
   A|-7-7--8-8-8-8-8--10-10-10-10-12-8-|
   D|-7-7--8-8-8-8-8-------------------|
      
   
   E|---------------------------------|
   B|---------------------------------|
   G|-1010-1010101010-----------------|
   D|-1010-1010101010-----------------|
   A|-7-7--8-8-8-8-8--10-10-10-10-8-8-|
   D|-7-7--8-8-8-8-8------------------|
   

   Chorus:

   E|------------------|repeat as needed
   B|------------------|
   G|------------------|
   D|-1010--1212--8--3-|
   A|-1010--1212--8--3-|
   D|-1010--1212--8--3-|
      C     D     A# F
Link to the solo by palm muting the F chord

 Solo:

   E|--------------------------------------------------------|x3
   B|--------------------------------------------------------|
   G|-14----14----14-14----14----14----14-----15-15----15----|
   D|----15----15-------15----15----15-----15-------15----15-|
   A|--------------------------------------------------------|
   D|--------------------------------------------------------|

Last Pre-Chorus: repeat twice the 1st part

End on F

I love this song and Feeder always play awesome concerts!!
rate :P
Tap to rate this tab
# A B C D E F G H I J K L M N O P Q R S T U V W X Y Z