Guitaretab - guitar tabs
Song name
# A B C D E F G H I J K L M N O P Q R S T U V W X Y Z

Feeder - Child In You Acoustic tab

Band: Feeder
Song: Child In You (Acoustic Living Room Session)
Album: Just The Way I'm Feeling CDS 2

wonderful version of a wonderful song

capo 5th
Standard Tuning

Intro:
e|---2----2----0-----2----2-----0--------------0---|
B|----------------------------------3------3-----3-|
G|-----0---0-----0-----0----0----0-----------------|
D|-2----2----0-----2----2-----0-------0-----0------|
A|--------------------------------3----0h2---0-----|
E|-------------------------------------------------|

Verse:
e|---2----2----0-----2----2-----0--------------0--|x2
B|---------------------------------3------3-----3-|
G|-----0---0-----0-----0----0----0---------0------|
D|-2----2----0-----2----2-----0-------0-----0-----|
A|--------------------------------3-----2---------|
E|------------------------------------------------|

e|---2----2-----0--------------|
B|-----------------3------3----|
G|-----0----0----0---------0---|
D|-2----2-----0-------0-----0--|
A|----------------3-----2------|
E|-----------------------------|
[ Tab from: http://www.guitaretab.com/f/feeder/59285.html ]
Chorus 1:

Play: D  Am  C  G x3
      F  Em(let ring) 

Every time you end the G strumming, play this:

e|-3300-|
B|-0000-|
G|-0000-|
D|------|
A|------|
E|------|

when you play the F chord, just pick the last 4 strings(3d,4th,5th,6th) like this
e|---|
B|---|
G|-2-|
D|-3-|
A|-3-|
E|-1-|

break: repeat intro

Verse 2: same as verse 1
chorus 2: same as chorus 1, just play twice the "F  Em" part

Bridge:

e|-0-0---0-0--0000-00--333--222222-|x3
B|-1-1h3p1-1--3333-11--000--333333-|
G|-2-2---2-2--2222-22--000--222222-|
D|-2-2---2-0--0000-00--000--000000-|
A|-0-0---0-3--3333-33--333---------|
E|---------------------222---------|

repeat intro x2

outro:

e|---2----2----0-----2----2-----0---------------0----|
B|----------------------------------3-----3------3---|
G|-----0---0-----0-----0----0----0---------0---------|
D|-2----2----0-----2----2-----0-------0------------2-|
A|--------------------------------3----2-----0-------|
E|---------------------------------------------------|

Feeder are awesome!!!rate :P
Related for Child In You Acoustic tab
Advertisement will be closed in 10 seconds