Song name
# A B C D E F G H I J K L M N O P Q R S T U V W X Y Z

Feeder - Insomnia tab

Tuning: Drop D (eBGDAD)

Incase you're not sure how to tune it to drop d, all you have to do is tune down the E 
by 2 frets/1 step. :)

Intro
|------------------------------------|
|------------------------------------|
|------------------------------------|
|------------------------------------|
|------------------------------------|
|3-3-3333-3333330-0-000-8-88-10101010|

|------------------------------------|
|------------------------------------|
|------------------------------------|
|3-3-3333-3333330-0-000-8-88-10101010|
|3-3-3333-3333330-0-000-8-88-10101010|
|3-3-3333-3333330-0-000-8-88-10101010| x2

Verse 1
|------------------------------------------------|
|10----10----10----10----10----10----11----11----|
|---10----10----10----10----10----10----10----10-|
|------------------------------------------------|
|------------------------------------------------|
|------------------------------------------------| x4

Pre-Chorus
|------------------------------|
|------------------------------|
|------------------------------|
|7--8--5555/7\3-7--8--555533---|
|7--8-----------7--8-----------|
|7--8-----------7--8-----------| x2

Chorus
|---------------------|
|---------------------|
|---------------------|
|10-12-8-3--10-12-8-15|
|10-12-8-3--10-12-8-15|
|10-12-8-3--10-12-8-15| x2

Pre-Verse
|------------------------------------|
|------------------------------------|
|------------------------------------|
|3-3-3333-3333330-0-000-8-88-10101010|
|3-3-3333-3333330-0-000-8-88-10101010|
|3-3-3333-3333330-0-000-8-88-10101010| x2

Verse 2
|------------------------------------------------|
|10----10----10----10----10----10----11----11----|
|---10----10----10----10----10----10----10----10-|
|------------------------------------------------|
|------------------------------------------------|
|------------------------------------------------| x4

Pre-Chorus
|------------------------------|
|------------------------------|
|------------------------------|
|7--8--5555/7\3-7--8--555533---|
|7--8-----------7--8-----------|
|7--8-----------7--8-----------| x2

Chorus
|---------------------|
|---------------------|
|---------------------|
|10-12-8-3--10-12-8-15|
|10-12-8-3--10-12-8-15|
|10-12-8-3--10-12-8-15| x4

Bridge
|------------------------------------------------|
|10----10----10----10----10----10----11----11----|
|---10----10----10----10----10----10----10----10-|
|------------------------------------------------|
|------------------------------------------------|
|------------------------------------------------|
(same as the verses but at half speed)

Pre Pre-Chorus (if that makes sense somehow)
|----------------------------|
|----------------------------|
|----------------------------|
|-------------------5555/7\3-|
|----------------------------|
|7--8--xxxxxx-7--8-----------|

Pre-Chorus
|------------------------------|
|------------------------------|
|------------------------------|
|7--8--5555/7\3-7--8--555533---|
|7--8-----------7--8-----------|
|7--8-----------7--8-----------|

Chorus
|---------------------|
|---------------------|
|---------------------|
|10-12-8-3--10-12-8-15|
|10-12-8-3--10-12-8-15|
|10-12-8-3--10-12-8-15| x6

Play This From The 4th round
|-----------------------------|
|-----------------------------|
|10-10-10-10-10-10-10-10-13-10|
|-----------------------------|
|-----------------------------|
|-----------------------------|
Tap to rate this tab
# A B C D E F G H I J K L M N O P Q R S T U V W X Y Z