Song name
# A B C D E F G H I J K L M N O P Q R S T U V W X Y Z

Feeder - Burn The Bridges tab

                Burn the Bridges - Feeder
-----------------------------------------------------------------------------------------------|

Tabbed by: Leo C (Rock God #1)

Tuning: Standard

Intro:

e|------------------------|
B|------------------------|
G|-7-x-7-x-77-------------|  x2
D|-7-x-7-x-77-4-x-4-x-44--|
A|-5-x-5-x-55-4-x-4-x-44--|
E|------------2-x-2-x-22--|

Verse:

e|-----------------------|
B|-----------------------|
G|-7-x-7-x-77------------|  x3
D|-7-x-7-x-77-4-x-4-x-44-|
A|-5-x-5-x-55-4-x-4-x-44-|
E|------------2-x-2-x-22-|

e|-----------------------|
B|-----------------------|
G|-4-x-4-x-44-7-x-7-x-77-|
D|-4-x-4-x-44-7-x-7-x-77-|
A|-2-x-2-x-22-5-x-5-x-55-|
E|-----------------------|

Repeat Verse, and repeat the last line of lyrics and guitar after the verse ('give me 
to carry on')

Chorus:

e|--------------------------------------------------|
B|--------------------------------------------------|
G|-7777777777777777--------4444444477777--777777999-|  x2
D|-777777777777777777777777444444447777777777777999-|
A|-55555555555555557777777722222222555557755555777--|
E|-----------------55555555-------------55----------|

Repeat intro chords

Repeat Verse

While Verse rhythm part is playing, another two guitars are doing this:

Guitar 2 repeats the bend for each line of lyrics:

e|-------|
B|-9h10b-|
G|-------|
D|-------|
A|-------|
E|-------|

Over this, another guitar plays this whenever the singer stops for breath:

e|-12h14p12h14-|
B|-------------|
G|-------------|
D|-------------|
A|-------------|
E|-------------|

On the 'She understands' parts, only 1 guitar plays the rhythm chords.

Repeat Verse again, with everything that has just been mentioned. Like the second verse,
the last line of lyrics and guitar ('She understands')

Repeat Chorus (with the x2)

After the 'burn the bridges' part, a second guitar plays:

e|---------------------|
B|-1010109997775553322-|
G|---------------------|
D|---------------------|
A|---------------------|
E|---------------------|

Lee Break/Bridge/Solo/Whatever you wanna call it, starts on the 'late' part of 'you're 
late':

e|-----------12---------------------------------------------------|
B|-14---12--------12-14----77777777-99910101010101010101010101010-| x2
G|----------------------------------------------------------------|
D|----------------------------------------------------------------|
A|----------------------------------------------------------------|
E|----------------------------------------------------------------|

e|---------------|
B|-10101010--12b-| x2
G|---------------|
D|---------------|
A|---------------|
E|---------------|

Repeat Intro

Repeat Verse (without the 2 extra guitars)

Repeat Verse with just the 1 extra guitar (The monotonous bending)

Repeat Chorus (with the x2) Make the first chords grow louder (crescendo)

Repeat Chorus (just once) and use the 'after the "burn the bridges" part' x2.

End on:

e|---|
B|---|
G|-7-|
D|-7-|
A|-5-|
E|---|

Legend:

h = hammer-on
p = pull-off
b = bend note
x = Mute note
Tap to rate this tab
# A B C D E F G H I J K L M N O P Q R S T U V W X Y Z