Song name
# A B C D E F G H I J K L M N O P Q R S T U V W X Y Z

Feederz - Break It All tab

Break It All, by FEEDERZ
Tabbed by Jake Strange (scumfuc)
Email: jakestrange@chaosmagic.com

e|--0------------0-------------0------------------------------|
B|--0------------0-------------0-------------444444444444444--|
G|--0------------0-------------0-------------444444444444444--|
D|--2------------2-------------2-------------444444444444444--|
A|--2------------2-------------2-------------222222222222222--|
E|--0------------0-------------0------------------------------|
"I wanna go wild...."      "destroy...all nite looooong!"

e|--0----------------3---------------2----------------1-------|
B|--0----------------3---------------2----------------1-------|
G|--0----------------4---------------3----------------2-------|
D|--2----------------5---------------4----------------3-------|
A|--2----------------5---------------4----------------3-------|
E|--0----------------3----------------------------------------|
 "so when the..."              "and break it all..."

e|--3---------------------|
B|--3-----------------7---|
G|--0-----------------7---|
D|--0-----------------7---|
A|--x-----------------5---|
E|--3---------------------|
 "you been alone 'cause..."

This is all you need to know, it's really simple.
PLay this along with the CD or LP to piece it all together.
Tap to rate this tab
 
# A B C D E F G H I J K L M N O P Q R S T U V W X Y Z