Song name
# A B C D E F G H I J K L M N O P Q R S T U V W X Y Z

Feelers - Right Here Right Now tab

E|------------------------|-----------------------|------------------------|
B|------------------------|-----------------------|------------------------|
G|------------------------|-----------------------|------------------------|
D|--7--7--7--7--7--7--7--7|-6--6--6--6--6--6--6--6|-5--5--5--5--5--5--5--5-|
A|--5--5--5--5--5--5--5--5|-5--5--5--5--5--5--5--5|-5--5--5--5--5--5--5--5-|
E|------------------------|-----------------------|------------------------|


E|--------3--------2-----0--|
B|-----3--------3-----------|
G|--4--------2--------1-----|
D|--------------------------|
A|--------------------------|
E|--------------------------|
Tap to rate this tab
 
# A B C D E F G H I J K L M N O P Q R S T U V W X Y Z