Song name
# A B C D E F G H I J K L M N O P Q R S T U V W X Y Z

Feelers - Supersystem tab

----------------------------------------------------------------------------
			     SUPERSYSTEM - The Feelers
----------------------------------------------------------------------------

Great song. Listen to it for the strumming.

Intro/Verse

   Asus2   A   Asus4 Asus2  C9
e|---------------------0-----------|
B|--0------2-----3-----0-----0-----|
G|--2------2-----2-----2-----0-----| 
D|--2------2-----2-----2-----2-----|
A|--0------0-----0-----0-----3-----|
E|---------------------------------|


Chorus

     F    G    
e|---1----3------| 
B|---1----0------| 
G|---2----0------| 
D|---3----0------| 
A|---3----2------| 
E|---1----3------| 
Tap to rate this tab
# A B C D E F G H I J K L M N O P Q R S T U V W X Y Z