Song name
# A B C D E F G H I J K L M N O P Q R S T U V W X Y Z

Feeling Left Out - Unspoken Word tab

E|-------------------------------------------------------|
A|-3--3-3---3--------------------------------------------|
D|----------------------------2--2-2---2-----2-----2-----|
G|--------0--------0------0----------4-----4-----4---4---|
B|------------3--3----------3------------1-----1---------|
e|-------------------0--0--------------------------------|

E|--------------------------------------------------------|
A|-3--3-3---3---------------------------------------------|
D|----------------------------2--2-2---2------------------|
G|--------0--------0------0----------4--------------------|
B|------------3--3----------3------------1~--(Let Ring)---|
e|-------------------0--0---------------------------------|

I've figured out a bit more of this song but I'm not going to put it up because I'm not 
if it's right. So, on that note, if anyone could aid me in figuring out the rest of this 
song, it would be greatly appreciated. My email address is as follows:

Days_till_spring@hotmail.com

Or contact me via Myspace because everyone has one and I don't typically check my email:

www.myspace.com/nicfuckingcritney_bitches

Thanks.
Tap to rate this tab
# A B C D E F G H I J K L M N O P Q R S T U V W X Y Z