Song name
# A B C D E F G H I J K L M N O P Q R S T U V W X Y Z

Feeling Left Out - Going Away To College tab

Intro
E|-----------|      |-----------|
B|-----------|      |-----------|
G|---4---4---|      |---4---7---| 
D|---5---7---| (x2) |---5---7---| (x2)
A|---5---5---|      |---3---3---|
E|---3---3---|      |-----------|

Verse
E|---------------|
B|---------------|
G|---4---4---7---|
D|---5---5---7---|
A|---5---3---5---|
E|---3-----------|

Chorus
E|-------------------|
B|-------------------|
G|---4---5---4---4---|
D|---4---5---5---5---|
A|---2---3---5---5---|
E|-----------3---2---|


Order:
Intro x2
Verse x12
Chorus x4
Verse x6
Chorus x4
Intro x2
Chorus x4
Tap to rate this tab
 
# A B C D E F G H I J K L M N O P Q R S T U V W X Y Z