Song name
# A B C D E F G H I J K L M N O P Q R S T U V W X Y Z

Feeling Left Out - Spilled Milk tab

From the album "Running On Empty"
This song is tuned one half step down:

E=Eb   G=Gb
A=Ab   B=Bb
D=Db   E=Eb

I didn't include any timing or number of times you should play each 
chord.  This is strictly the fingering.  Listen to the song to pick up 
the rhythm and this should work out fine.

Hope this helps.

Joe.

======================================================================
VERSE 2X
(Wait Before You...)
E--o----o----o--o--o--o--o---o
B--o----o----o--o--o--o--o---o
G--4----4----4--4--4--4--5---7
D--5----4----2--4--0--5--5---7
A--x----x----x--x--x--x--x---x
E--x----x----x--x--x--x--x---x

(No More Lies...) 2X
e--o----o----o----o
B--3----3----1----o
G--4----5----o----o
D--5----4----2----o
A--x----x----x----o
E--x----x----x----o


PRE-CHORUS (Feed the Meter...) 2X
E--3------2----o----o-----o
B--3------3----o----3-----1
G--o------o----o----o-----o
D--o------o----2----4-----2
A--2------x----2----x-----x
E--3------2----o----x-----x

(Run Behind...) 2X
E--3----7----o----o
B--3----7----3----1
G--o----o----o----o
D--o----o----4----2
A--2----6----x----x
E--3----7----x----x

E--7----o--------------------x-----x--x
B--8----o--------------------x-----x--x
G--o----6--------------------9-----8--8
D--o----7--------------------x-----x--x
A--7----4--------------------7-----6--6
E--7----5----5-slide-7-slide-8-----7--7

Repeat Verse 2X
Repeat "No More Lies... 2X
Repeat Pre-Chorus 2X
Repeat "Run Behind..."  2X

CHORUS
(Baby I'm Sorry...) 2X
e--3----7----7----3
B--3----7----8----4
G--o----o----o----o
D--o----o----o----o
A--2----6----7----3
E--3----7----7----3

BRIDGE				        -Slide Between these Octaves-
e--7----o-------------------x----x--x---x---x---x---x---x---x---x---x------x------x---x--x
B--8----o-------------------x----x--x---x---x---x---x---x---x---x---x------x------x---x--x
G--o----6-------------------9----8--8---9---11--12--11--9---11--12--11-----12-----11--12-11
D--o----7-------------------x----x--x---x---x---x---x---x---x---x---x------x------x---x--x
A--7----4-------------------7----6--6---7---9---10--9---7---9---10--9------10-----9---9--9
E--7----5---5-slide-7-slide-8----7--7---o---o---o---0---o---o---o---o------9------8---10-10

PRE-CHORUS (Feed the Meter...) 2X
E--3------2----o----o------o
B--3------3----o----3------1
G--o------o----o----o------o
D--o------o----2----4------2
A--2------x----2----x------x
E--3------2----o----x------x

(Run Behind...) 2X
E--3----7----o----o
B--3----7----3----1
G--o----o----o----o
D--o----o----4----2
A--2----6----x----x
E--3----7----x----x

CHORUS
(Baby I'm Sorry...) 4X (2X loud, 2X soft)
E--3----7----7----3
B--3----7----8----4
G--o----o----o----o
D--o----o----o----o
A--2----6----7----3
E--3----7----7----3

SLIDE UP TO THIS CHORD
E----7
B----8
G----o
D----o
A----7
E----7
======================================================================
Tap to rate this tab
# A B C D E F G H I J K L M N O P Q R S T U V W X Y Z