Song name
# A B C D E F G H I J K L M N O P Q R S T U V W X Y Z

Fefe Dobson - Everything tab

These are the chords for this song and the progression.

Intro: Bm - A (2x)

Verse: D - A - Em - G (4x)

Bridge: F# - G - E - A

Chorus: D - Em - G - A
        F#m - Bm - Em - A  (Repeat 8 chords twice)

Intro:

Verse:

Bridge:

Chorus:

Intro:

Adlib: (D - A - Em - G 2x) these are the chords while another guitar plays adlib.

E---------------------------------------------------------------|
B---------------------------------------------------------------|
G----7h9-9/11--11-11\9---7-9*---9p7---------7h9-9/11--11-11\9---|
D-7h9--------------------------------9---7h9--------------------|
A---------------------------------------------------------------|
E---------------------------------------------------------------|

E---------------------|
B--------12p10--------|
G-7-/11*------p11--\7-|
D---------------------|
A---------------------|
E---------------------|

Bridge:

Chorus 2x

Intro:

~End~
Tap to rate this tab
 
# A B C D E F G H I J K L M N O P Q R S T U V W X Y Z