Song name
# A B C D E F G H I J K L M N O P Q R S T U V W X Y Z

Fefe Dobson - If I Was Guy tab

e|--------------------------------------------------------------|
b|--------------------------------------------------------------|
g|--------------------------------------------------------------|   Intro 2x
d|--13-13-13-13-------------------------------------------------|
a|--13-13-13-13-------------------------------------------------|
e|--11-11-11-11-------------------------------------------------|




   
e|---------------------------------------------------------------------------------|
b|---------------------------------------------------------------------------------|
g|---------------------------------------------------------------------------------|   verse 2x
d|--13-13-13---9-9-9-9-9-9-9--10-10-10-10--13-13-13-13-13-13-----------------------|
a|--13-13-11---9-9-9-9-9-9-9--10-10-10-10--13-13-13-13-13-13-----------------------|
e|--11-11-11---7-7-7-7-7-7-7---8--8--8--8--11-11-11-11-11-11-----------------------|





e|--------------------------------------------------------------------------------------------------|
b|--------------------------------------------------------------------------------------------------|
g|--------------------------------------------------------------------------------------------------|
d|--9-9-9-9-9-9-9--8-8-8-8-8-8-8--12-12-12-12-12-12-12--13-13-13-13-13-13-13--11-11-11-11-11-11-11--|
a|--9-9-9-9-9-9-9--8-8-8-8-8-8-8--12-12-12-12-12-12-12--13-13-13-13-13-13-13--11-11-11-11-11-11-11--|
e|--7-7-7-7-7-7-7--6-6-6-6-6-6-6--10-10-10-10-10-10-10--11-11-11-11-11-11-11---9--9--9--9--9--9--9--|

e|--------------------------------------------------------------|
b|--------------------------------------------------------------|
g|--------------------------------------------------------------|   verse 2x
d|--9-9-9-9-9-9-9---8-8-8-8-8-8-8-------------------------------|
a|--9-9-9-9-9-9-9---8-8-8-8-8-8-8-------------------------------|
e|--7-7-7-7-7-7-7---6-6-6-6-6-6-6-------------------------------|
        X2              X2
Tap to rate this tab
# A B C D E F G H I J K L M N O P Q R S T U V W X Y Z