Song name
# A B C D E F G H I J K L M N O P Q R S T U V W X Y Z

Feff - Bother To You tab

Help us improve GuitareTab! Take a short survey!
----------------------------------------------------------------------------
			     BOTHER TO YOU - Feff
----------------------------------------------------------------------------

Tabbed by: Linz G.
Email: Closer2thaSun@aim.com

Tuning: standard

Feff is a band based outta brooklyn that sounds kind of like a younger godsmack in some 
if yer interested.


www.myspace.com/feffband


SEE RIFFS BELOW TO PLAY:

INTRO:
PLAY RIFF ONE twice,
(then when the guitar gets heavy,)
PLAY RIFF TWO twice, PLAY RIFF ONE TWICE.


CHORUS:
PLAY RIFF ONE twice, PLAY RIFF TWO twice, repeat until chorus ends.

SOLO AT BOTTOM


(riff one)
e|------------------------11--------------------------------------------|
B|----9----9--11--9----9------9----9--11--9-----9-----------------------|
G|-10---10----------10----------10----------10--------------------------|
D|----------------------------------------------------------------------|
A|----------------------------------------------------------------------|
E|----------------------------------------------------------------------|

(riff two)
e|----------------------10----------------------------------------------|
B|-----8---8--10--8---8----8---8--10--8---8-----------------------------|
G|--9----9----------9--------9----------9-------------------------------|
D|----------------------------------------------------------------------|
A|----------------------------------------------------------------------|
E|----------------------------------------------------------------------|

SOLO:

e|---------------------------------------------------------------------|
B|-------------------------------------b10--------------b12------------|
G|--9--10--9--10--9----9--10--9--10--9-----9--10--9--10-------9--10--9-|
D|---------------------------------------------------------------------|
A|---------------------------------------------------------------------|
E|---------------------------------------------------------------------|

e|--------------------------------------------------------------|
B|-----16--b16--15-14-15-14h15p14-12--11-12-10h11p10-9h10p8-----|
G|-10-----------------------------------------------------------|
D|--------------------------------------------------------------|
A|--------------------------------------------------------------|
E|--------------------------------------------------------------|

e|-----------------------------------------------------------------|
B|--8h9p7-7h8p5-5h6p4-4h5p3-3h4p2-2h3p0--2--4-2-6-5-4-7-6-5-4-5-5--|
G|---------------------------------------3-------------------------|
D|-----------------------------------------------------------------|
A|-----------------------------------------------------------------|
E|-----------------------------------------------------------------|

e|-------------------------------------------------------------------------|
B|-7-9-8-7-10-9-8-9-8-8-10-9-8-7-7-11-11-11-13-13-13--16-16-15-14h15p14p13-|
G|---------------------------------12-12-12-14-14-14--16-16-15-------------|
D|-------------------------------------------------------------------------|
A|-------------------------------------------------------------------------|
E|-------------------------------------------------------------------------|

e|-------------------------------------------------------------------|
B|--11-11-11-13-13-13--16-16-15-14h15p14p13--------------------------|
G|--12-12-12-14-14-14--16-16-15--------------------------------------|
D|-------------------------------------------------------------------|
A|-------------------------------------------------------------------|
E|-------------------------------------------------------------------|


THEN PLAY CHORUS AGAIN A COUPLE TIMES TIL THE SONG ENDS.

I didnt tab the lil outtro. Didnt have enough time or energy to do so after figuring out that solo :)

The outtro's not that hard. Just a few finger plucks and a bend.
I did all the work up until this point...
I'm sure you can finish the easy part ;)

<3 peace n love-- Linz
Related for Bother To You tab