Song name
# A B C D E F G H I J K L M N O P Q R S T U V W X Y Z

Fei Comodo - Burn It All tab

Intro

Guitar 1

E|--------------------------------------------------|
B|--------------------------------------------------|
G|--------------------------------------------------|
D|--------------------------------------------------|
A|--------------------------------------------------|
D|---5-3-0-8\--5-3-0-8\--5-3-0-8\---5-3--x0-0-000-0-|

Guitar 1

E|-----------------------------------------------|
B|-----------------------------------------------|
G|-----------------------------------------------|
D|---5-3-0-8--5-3-0-8--5-3-0-8---5-3-------------| x4
A|---5-3-0-8--5-3-0-8--5-3-0-8---5-3-------------|
D|---5-3-0-8--5-3-0-8--5-3-0-8---5-3--x0-0-000-0-|


Guitar 2

E|-------------------------------------------------|
B|-------------------------------------------------|
G|---7-5---10--7-5---10--7-5---10--7-5-------------|
D|-------0---------0---------0---------------------| x2 
A|---5-3-0-8---5-3-0-8---5-3-0-8---5-3-------------|
D|-------0---------0---------0----------x0-0-000-0-|

E|-----------------------------------------------|
B|-----------------------------------------------|
G|-----------------------------------------------|
D|---5-3-0-8--5-3-0-8--5-3-0-8---5-3-------------| x2
A|---5-3-0-8--5-3-0-8--5-3-0-8---5-3-------------|
D|---5-3-0-8--5-3-0-8--5-3-0-8---5-3--x0-0-000-0-|

| /  slide up
| \  slide down
| h  hammer-on
| p  pull-off
| ~  vibrato
| +  harmonic
| x  Mute note
Tap to rate this tab
# A B C D E F G H I J K L M N O P Q R S T U V W X Y Z