Song name
# A B C D E F G H I J K L M N O P Q R S T U V W X Y Z

Feine Sahne Fischfilet - Komplett Im Arsch tab

Feine Sahne Fischfilet – Komplett im Arsch



Intro/Verse/Refrain:
e:|---------------------------------------|
B:|---------------------------------------|
G:|-------8---------7---------------------|
D:|--5----8----8----7---------------------|
A:|--5----6----8----5---------------------|
E:|--3---------6--------------------------|
   
Bridge:
e:|-------------------------------------------------------|
B:|-------------------------------------------------------|
G:|-------------8-8-8-8-8-------------7-8-----------------|
D:|--5-5-5-5-5--8-8-8-8-8--8-8-8-8-8--7-8-----------------|
A:|--5-5-5-5-5--6-6-6-6-6--8-8-8-8-8--5-6-----------------|
E:|--3-3-3-3-3-------------6-6-6-6-6----------------------|
         x x x      x x x      x x x       

e:|-------------------------------------------------------|
B:|-------------------------------------------------------|
G:|-------------8-8-8-8-8---------------------------------|
D:|--5-5-5-5-5--8-8-8-8-8--8-8-8-8-8--7-7-7-7-------------|
A:|--5-5-5-5-5--6-6-6-6-6--8-8-8-8-8--7-7-7-7-------------|
E:|--3-3-3-3-3-------------6-6-6-6-6--5-5-5-5-------------|
         x x x      x x x      

e:|-------------------------------------------------------|
B:|-------------------------------------------------------|
G:|-------------8-8-8-8-8-------------7-8-----------------|
D:|--5-5-5-5-5--8-8-8-8-8--8-8-8-8-8--7-8-----------------|
A:|--5-5-5-5-5--6-6-6-6-6--8-8-8-8-8--5-6-----------------|
E:|--3-3-3-3-3-------------6-6-6-6-6----------------------|
         x x x      x x x      x x x    


e:|-------------------------------------------------------|
B:|-------------------------------------------------------|
G:|-------------8-8-8-8-8--7-7-7-7-7-7--5-5-5-5-5-5-------|
D:|--5-5-5-5-5--8-8-8-8-8--7-7-7-7-7-7--5-5-5-5-5-5--5----|
A:|--5-5-5-5-5--6-6-6-6-6--5-5-5-5-5-5--3-3-3-3-3-3--5----|
E:|--3-3-3-3-3---------------------------------------3----|
         x x x      x x x    

Viel Spaß! ;-)
Tap to rate this tab
# A B C D E F G H I J K L M N O P Q R S T U V W X Y Z