Guitaretab - guitar tabs
Song name
# A B C D E F G H I J K L M N O P Q R S T U V W X Y Z

Feist - One Two Three Four tab

Feist Ė One Two Three Four
Tuning: Standard
Capo : 2nd fret

VERSE 1:
     C             C/B           Am                   F
e|-0-0-0----------0-0-0---------0-0-0---------------1-1-1
B|-1-1-1----------1-1-1---------1-1-1---------------1-1-1
G|-0-0-0----------0-0-0---------2-2-2---------------2-2-2
D|-2-2-2----------0-0-0---------2-2-2---------------3-3-3
A|-3-3-3----------2-2-2---------0-0-0---------------3-3-3
E|-0-0-0----------0-0-0---------0-0-0---------------1-1-1
  One Two         Three Four    Tell me that you    love me more
  Sleepless,      long nights   That was what my    youth was for
  Oh teenage      hopes are     lying at your       door
  Left you with   nothing But   they want some      more


CHORUS:
    G        F		    F
e|-3-3-3---1-1-1-----1-1-1-1-1-1-1-1
B|-3-3-3---1-1-1-----1-1-1-1-1-1-1-1
G|-0-0-0---2-2-2-----2-2-2-2-2-2-2-2
D|-0-0-0---3-3-3-----3-3-3-3-3-3-3-3
A|-2-2-2---3-3-3-----3-3-3-3-3-3-3-3
E|-3-3-3---1-1-1-----1-1-1-1-1-1-1-1
    Oh      Oh       You're changing your heart
    Oh      Oh       You know who you are
[ Tab from: http://www.guitaretab.com/f/feist/100477.html ]
VERSE 2:
     C             C/B           Am                   F
e|-0-0-0----------0-0-0-----------0-0-0---------------1-1-1
B|-1-1-1----------1-1-1-----------1-1-1---------------1-1-1
G|-0-0-0----------0-0-0-----------2-2-2---------------2-2-2
D|-2-2-2----------0-0-0-----------2-2-2---------------3-3-3
A|-3-3-3----------2-2-2-----------0-0-0---------------3-3-3
E|-0-0-0----------0-0-0-----------0-0-0---------------1-1-1
  Sweetheart,     bitter heart    Now I can't         tell you apart
  Cozy            and cold        Put the horse       before the cart
  Those teen-     age hopes       Who have tears      in their eyes
  To scared       to own up       to one              little lie

CHORUS:
    G        F		    F
e|-3-3-3---1-1-1-----1-1-1-1-1-1-1-1
B|-3-3-3---1-1-1-----1-1-1-1-1-1-1-1
G|-0-0-0---2-2-2-----2-2-2-2-2-2-2-2
D|-0-0-0---3-3-3-----3-3-3-3-3-3-3-3
A|-2-2-2---3-3-3-----3-3-3-3-3-3-3-3
E|-3-3-3---1-1-1-----1-1-1-1-1-1-1-1
    Oh      Oh       You're changing your heart
    Oh      Oh       You know who you are

VERSE 3:
     C             C/B           Am                   F
e|-0-0-0----------0-0-0---------0-0-0---------------1-1-1
B|-1-1-1----------1-1-1---------1-1-1---------------1-1-1
G|-0-0-0----------0-0-0---------2-2-2---------------2-2-2
D|-2-2-2----------0-0-0---------2-2-2---------------3-3-3
A|-3-3-3----------2-2-2---------0-0-0---------------3-3-3
E|-0-0-0----------0-0-0---------0-0-0---------------1-1-1
  One Two         Three Four    five, six, nine,    and ten
  Money canít     buy you       back the love that  you had then
  One Two         Three Four    five, six, nine,    and ten
  Money canít     buy you       back the love that  you had then


CHORUS:
    G        F		    F
e|-3-3-3---1-1-1-----1-1-1-1-1-1-1-1
B|-3-3-3---1-1-1-----1-1-1-1-1-1-1-1
G|-0-0-0---2-2-2-----2-2-2-2-2-2-2-2
D|-0-0-0---3-3-3-----3-3-3-3-3-3-3-3
A|-2-2-2---3-3-3-----3-3-3-3-3-3-3-3
E|-3-3-3---1-1-1-----1-1-1-1-1-1-1-1
    Oh      Oh       You're changing your heart
    Oh      Oh       You know who you are
    Oh      Oh       You're changing your heart
    Oh      Oh       You know who you are
Related for One Two Three Four tab