Song name
# A B C D E F G H I J K L M N O P Q R S T U V W X Y Z

Feist - Mushaboom tab

-------------------------------------------------------------------------------
			     Mushaboom solo- Feist
-------------------------------------------------------------------------------
Tabbed by:TeeCue
Email:lci_ram55@hotmail.com
Tuning: Standard
Fairly simple, listen to the song for the timing...
I made this tab because it annoyed me that the other Mushaboom tab Didn't have it :)

e|------------------------------------------------------------------------------|
B|------------------------------------------------------------------------------|
G|-----------------------------------/8-5-5-3-----------------------------------|
D|3h5-5-5-------5--3h5-5-5-3-3-1-1-5-----------3h5-5-5-------5-3h5-5-5-3-3-1-1-5|
A|--------3-3-1----------------------------------------3-3-1--------------------|
E|------------------------------------------------------------------------------|

e|---------------------------------------------------------------------------|
B|---------------------------------------------------------------------------|
G|/8-5-5-3-------------------------------------------------------------------|
D|---------------------------------------------------------------------------|
A|---------------------------------------------------------------------------|
E|---------------------------------------------------------------------------|
So there you have it... my first submitted tab :)
h= hammer on
/= slide
Tap to rate this tab
# A B C D E F G H I J K L M N O P Q R S T U V W X Y Z