Song name
# A B C D E F G H I J K L M N O P Q R S T U V W X Y Z

Feist - I Feel It All tab

-------------------------------------------------------------------------------
			     I Feel It All - Feist
-------------------------------------------------------------------------------
Tabbed by:jimiintothewild
Email:jimirusson@hotmail.co.uk

Tuning:DADGBE

Riff:
e|---------------------------------------------------------------------------|
B|--10~----------------10~---------------------------------------------------|
G|----11~----------------11~----11~------------------------------------------|
D|---------------------------------------------------------------------------|
A|--------12~--14~-----------12----------------------------------------------|
E|---------------------------------------------------------------------------|

Intro and Verses (mute for verses):
e|---------------------------------------------------------------------------|
B|---------------------------------------------------------------------------|
G|---7-7-7-7-7------7-7-7-7-7--7-7-7-7-7-------1111111111--------------------|
D|---0-0-0-0-0------5-5-5-5-5--5-5-5-5-5-------9-9-9-9-9---------------------|
A|---0-0-0-0-0------5-5-5-5-5--5-5-5-5-5-------9-9-9-9-9---------------------|
E|---0-0-0-0-0------5-5-5-5-5--5-5-5-5-5-------9-9-9-9-9---------------------|

Chorus
e|---------------------------------------------------------------------------|
B|---------------------------------------------------------------------------|
G|---------------------------------------------------------------------------|
D|---5-5-5-5-5-5-5-5-5----7-7-7-7-7-7-7-7------------------------------------|
A|---5-5-5-5-5-5-5-5-5----7-7-7-7-7-7-7-7------------------------------------|
E|---5-5-5-5-5-5-5-5-5----7-7-7-7-7-7-7-7------------------------------------|



************************************

| /   slide up
| \   slide down
| h   hammer-on
| p   pull-off
| ~   vibrato
| +   harmonic
| x   Mute note
| b   Bend
| pb  Pre-bend
| br  Bend release
| pbr Pre-bend release
| brb Bend release bend

************************************
Tap to rate this tab
# A B C D E F G H I J K L M N O P Q R S T U V W X Y Z