Song name
# A B C D E F G H I J K L M N O P Q R S T U V W X Y Z

Feist - Anti-pioneer tab

Artist: Feist
Song: Anti-Pioneer
Album: Metals (2011)

for that chord with an A under it, just kind of arpeggiate it for a little while. very 
subtle guitar playing in this song!

|----------7-9------------5-------------7S9-------------|
|-6b6.5r5--------4S5--3-----7--6b6.5r5-------4S5-4-3----|
|-------------------------------------------------------|
|-------------------------------------------------------|
|-------------------------------------------------------|
|-------------------------------------------------------|


|-------------------------------------------|
|-6b6.5r5--0--------------6b6.5r5--0--3-----|
|----------3-4---------------------3--4-----|
|----------2-4---------------------2--4-----|
|------------2--1S2-1-0---------------2-----|
|-------------------------------------------|
           A                       A
Tap to rate this tab
# A B C D E F G H I J K L M N O P Q R S T U V W X Y Z