Guitaretab - guitar tabs
Song name
# A B C D E F G H I J K L M N O P Q R S T U V W X Y Z

Feist - I Feel It All tab

Highlighted       Show chord diagrams
-------------------------------------------------------------------------------
			     I Feel It All - Feist
-------------------------------------------------------------------------------
Tabbed by: Halo Apollo
Email: Haloapollo@aol.com

Tuning: Open D
It's very important that you tune your guitar to open D,
this is the actual tuning Leslie Feist uses, and this is how she plays the song...,
to learn how to tune your guitar to open D tuning, follow the link:
http://guitar.about.com/library/bltuningdadfsharpad.htm
Now, These chords are extremely easy, they're just barre chords,
but being that it's in Open D, they're just one finger chords...
here they are:
        D             G            B           D(same chord,12th fret)
d|------0-------------5------------9-----------12-------------------------------|
A|------0-------------5------------9-----------12-------------------------------|
F#|-----0-------------5------------9-----------12-------------------------------|
D|------0-------------5------------9-----------12-------------------------------|
A|------0-------------5------------9-----------12-------------------------------|
D|------0-------------5------------9-----------12-------------------------------|

For strumming patterns, listen to the song
D-G-B x4
D                   G                B
 I feel it all, I feel it all

D                   G              B
 I feel it all, I feel it all

D                           G             B
   The wings are wide, the wings are wide

D                        G                 B
   Wild card inside,    wild card inside

G~(Palm Mute for this line)           B~
Oh Iíll be the one who'll break my heart  I'll be the one to hold the gun

D                      G            B
   I know more than I knew before

D                       G           B
   I know more than I knew before

D                      G             B
   I didn't rest, I didn't stop

D                   G               B
   Did we fight or did we talk

G       (palm mute again)                    B
Oh Iíll be the one who'll break my heart  I'll be the one to hold the gun

*****
D          	      G             B
I love you more

D                 G                B
I love you more

D                     G               B
I don't know what I knew before

D                         G               B
But now I know I want to win the war
*****

=======Palm Mute This Whole Section=======
G ~ Pm
No one likes to take a test, Sometimes you know more is less
[ Tab from: http://www.guitaretab.com/f/feist/89915.html ]
B ~ pm
Put your weight against the door, Kick drum on the basement floor

G ~ pm
Stranded in a fog of words, Loved him like a winter bird

B ~ pm
On my head the water pours, Gulf stream through the open door


D(on the 12th)                 B           (stop playing)
Fly away Fly away to what you want to make  Oh-oh-oh-oh-oh-oh-oh-oh-oh-oh OH!
============Stop Palm Muting=========
D                   G            B
I feel it all    I feel it all

D                   G            B
I feel it all    I feel it all

D                          G             B
The wings are wide   The wings are wide

D                         G                B
Wild card in sight, wild card in sight

G ~ Pm                               B
Oh Iíll be the one who'll break my heart

B          pm                      D(on 12)
I'll be the one who'll break my heart

D (on 12)   pm                      B
I'll be the one who'll break my heart

B pm
I'll end it, though you started it

D             G           B
  The truth lies

D              G          B
   The truth lied

D             G           B
  And Lies Divide

D              G          B
     Lies Divide


End on D

*****
during the part surrounded by the asterisks,
there's a part played on piano between the G and the B chords...
during one particular live performance (the one on the colbert report), Feist sang this 
accompanied by nothing except her guitar, and she played this piano part...,
It sounds really good if you play it correctly and with good timing, and i like it, so i 
i'd add it in, just for kicks

You can Hit the D chord and then land on G, and stop on G to play this, that's what i do:
d|------0-------5----------------------------------------------------------|
A|------0-------5----------------------------------------------------------| \
F#|-----0-------5----7h8 x 7-----------------------------------------------|   X2
D|------0-------5----------------------------------------------------------| /
A|------0-------5----------------------------------------------------------|
D|------0-------5----------------------------------------------------------|

d|------0-------5------------------------------------------------------|
A|------0-------5----7h9 x 7-------------------------------------------| \
F#|-----0-------5------------------------------------------------------|  X2
D|------0-------5------------------------------------------------------| /
A|------0-------5------------------------------------------------------|
D|------0-------5------------------------------------------------------|

And That's It,
hope you think it works..., i think it works, lol
Comments or Questions, E-mail me!
Related for I Feel It All tab