Song name
# A B C D E F G H I J K L M N O P Q R S T U V W X Y Z

Fela Kuti - Opposite People tab

  1 e + a 2 e + a 3 e + a 4 e + a
e-----------------4----4----4-----|
B-4-6-4-4-6-4-----4----4----4-----|
G---------------------------------|
D---------------------------------|
A---------------------------------|
E---------------------------------|

  1 e + a 2 e + a 3 e + a 4 e + a
e-----------------4----4----4-----|
B-4-6-4-4-6-4-----4----4----4-----|
G---------------------------------|
D---------------------------------|
A---------------------------------|
E---------------------------------|

  1 e + a 2 e + a 3 e + a 4 e + a
e-4-6-4-4-6-4-----4----4----4-----|
B-----------------4----4----4-----|
G---------------------------------|
D---------------------------------|
A---------------------------------|
E---------------------------------|

  1 e + a 2 e + a 3 e + a 4 e + a
e-4-6-4-4-6-4-----4----4----4-----|
B-----------------4----4----4-----|
G---------------------------------|
D---------------------------------|
A---------------------------------|
E---------------------------------|

As always, repeat ad infinitum
Tap to rate this tab
 
# A B C D E F G H I J K L M N O P Q R S T U V W X Y Z