Song name
# A B C D E F G H I J K L M N O P Q R S T U V W X Y Z

Fela Kuti - Unknown Soldier tab

Guitar 1:
   1 e + a 2 e + a 3 e + a 4 e + a
e-11---10--8---10--8h10--8h10--8---|
B------------------10----10--------|
G---------------------------------*|
D---------------------------------*|
A----------------------------------|
E----------------------------------|

Guitar 2:
  1 e + a 2 e + a 3 e + a 4 e + a
e----------------------------------|
B----------------------------------|
G---------------------------------*|
D---------8---------------6-------*|
A---6-8-------------6-8-------8----|
E-8---------------8----------------|

One of these is probably tenor guitar.  I'm tempted to say that it's guitar 1, but I 
play tenor, so I can't say for sure.  As always, repeat ad infinitum.
Tap to rate this tab
# A B C D E F G H I J K L M N O P Q R S T U V W X Y Z