Song name
# A B C D E F G H I J K L M N O P Q R S T U V W X Y Z

Fela Kuti - Roforofo Fight tab

Help us improve GuitareTab! Take a short survey!
As with most Fela songs, the guitars follow the same basic pattern the whole way through:

Guitar 1:
e---------------|----------------|
B---------------|----------------|
G---------------|---------------.|
D-6-8-8-8-8-----|---8---8-8-----.|
A-----------8---|-----------8----|
E---------------|----------------|
(I think the F is bent a quarter step)


Guitar 2:
e-1---1-----1---|---1-1---1-1----|
B-1---3-----3---|---1-3---1-3----|
G-1---1-----1---|---1-1---1-1---.|
D-3---3-----3---|---3-3---3-3---.|
A---------------|----------------|
E---------------|----------------|

The rhythm is very syncopated.  The strumming should be constant.  All of the 
should be done with the left hand using mutes.
Related for Roforofo Fight tab