Song name
# A B C D E F G H I J K L M N O P Q R S T U V W X Y Z

Felix Mendelssohn Bartholdy - Wedding March tab

-------------------------------------------------------------------------------
			     SONG NAME - Band Name
-------------------------------------------------------------------------------
Tabbed by: L. Van Maaren
Email: thesoundsofmaaren@gmail.com

Tuning: basic

e|--------------------------0-----------2------------------------------------|
B|-------3---3---3--------------2-------3------------------------------------|
G|--2-------------------2---2-----------2------------------------------------|
D|--0----0---0---0------2-------2-------0------------------------------------|
A|--0-------------------0----------------------------------------------------|
E|---------------------------------------------------------------------------|
  |--------D------ | ------A------ | ---D--- |


e|---------2---5---2---------------------------------------------------------|
B|-----3-------3-------3---------------2-------------------------------------|
G|--2------2---2---2--------0----2--2----------------------------------------|
D|--0--0-------2-------0----0----2--2--2-------------------------------------|
A|--0-----------------------2----0--0--0-------------------------------------|
E|--------------------------3------------------------------------------------|
  |---D------Dsus--D-----|--G--|---A--A7---|


e|--------------------------0-----------2------------------------------------|
B|-------3---3---3--------------2-------3------------------------------------|
G|--2-------------------2---2-----------2------------------------------------|
D|--0----0---0---0------2-------2-------0------------------------------------|
A|--0-------------------0----------------------------------------------------|
E|---------------------------------------------------------------------------|
  |--------D------ | ------A------ | ---D--- |


e|---------2---5---2--------------------------2------------------------------|
B|-----3-------3-------3--------------2--2----3------------------------------|
G|--2------2---2---2--------0------2--2-------2------------------------------|
D|--0--0-------2-------0----0------2--2--2----0------------------------------|
A|--0-----------------------2------0--0--0-----------------------------------|
E|--------------------------3------------------------------------------------|
  |---D------Dsus--D-----|--G--|---A--A7--- |-D-|


e|--3--2--0-------------------0--0-----3--2--0-------------------0--0--------|
B|--0--0--0---0---0-----2--3--2--2-----0--0--0---0---0-----2--3--2--2--------|
G|--0--0--0---0---0-----2--2--2--2-----0--0--0---0---0-----2--2--2--0--------|
D|--2--2--2---2---2-----2--2--2--2-----2--2--2---2---2-----2--2--2--2--------|
A|--2--2--2---2---2-----0--0--0--0-----2--2--2---2---2-----0--0--0--0--------|
E|--0--0--0---0---0--------------------0--0--0---0---0-----------------------|
  |-------Em-------- | -A-Asus-A---- |--------Em-------- |-A-Asus-A-A7---|


e|--------------------------0-----------2------------------------------------|
B|-------3---3---3--------------2-------3------------------------------------|
G|--2-------------------2---2-----------2------------------------------------|
D|--0----0---0---0------2-------2-------0------------------------------------|
A|--0-------------------0----------------------------------------------------|
E|---------------------------------------------------------------------------|
  |--------D------ | ------A------ | ---D--- |


e|---------2---5---2-------------------------------------------------------|
B|-----3-------3-------3---------------2-------------------------------------|
G|--2------2---2---2--------0----2--2----------------------------------------|
D|--0--0-------2-------0----0----2--2--2-------------------------------------|
A|--0-----------------------2----0--0--0-------------------------------------|
E|--------------------------3------------------------------------------------|
  |---D------Dsus--D-----|--G--|---A--A7---|

e|--------------------------0-----------2------------------------------------|
B|-------3---3---3--------------2-------3------------------------------------|
G|--2-------------------2---2-----------2------------------------------------|
D|--0----0---0---0------2-------2-------0------------------------------------|
A|--0-------------------0----------------------------------------------------|
E|---------------------------------------------------------------------------|
  |--------D------ | ------A------ | ---D--- |


e|---------2---5---2--------------------------2------------------------------|
B|-----3-------3-------3--------------2--2----3------------------------------|
G|--2------2---2---2--------0------2--2-------2------------------------------|
D|--0--0-------2-------0----0------2--2--2----0------------------------------|
A|--0-----------------------2------0--0--0-----------------------------------|
E|--------------------------3------------------------------------------------|
  |---D------Dsus--D-----|--G--|---A--A7--- |-D-|
Tap to rate this tab
 
# A B C D E F G H I J K L M N O P Q R S T U V W X Y Z