Song name
# A B C D E F G H I J K L M N O P Q R S T U V W X Y Z

Fences - From Roses tab

Fences - From Roses

Standard Tuning
EADGBe

For video reference:
http://www.youtube.com/watch?v=t245XIcVxTw

INTRO/VERSE
e|---0--0-----------0---------------------------|
B|---1--1-----------1---------------------------|
G|---2--2-----------0---------------------------|
D|---2--2-----0--2--0---------------------------|
A|---------3--------2---------------------------|
E|------1-----------3---------------------------|

On the second chord for the intro/verse I would recommend using your thumb on the E 
string, just to make it easier on your hand.
Also, for the appregio type thing I would put my fingers in a placement of the C chord.
There is also a hammer on/pull off somewhere after the second chord.

CHORUS
e|---0--0--0------------------------------------|
B|---1--1--1------------------------------------|
G|---2--2--0------------------------------------|
D|---3--2--0------------------------------------|
A|---------2------------------------------------|
E|---------3------------------------------------|

And that's basically the entire song, enjoy!
Tap to rate this tab
# A B C D E F G H I J K L M N O P Q R S T U V W X Y Z