Song name
# A B C D E F G H I J K L M N O P Q R S T U V W X Y Z

Fences - The Same Tattoos tab

The Same Tattoos
Fences
Composed by: Christopher Mansfield

Standard Tuning
(Eadgbe)

This is what I could hear from the song when they performed in the green room at 
KEXP radio in Seattle.
The Youtube video is at https://www.youtube.com/watch?v=upg6cEki8UA


Capo 1
-------
Intro
------
Guitar 1
e---5---5---5---5---2---2---2---2---5---5---5---2---2---2---2---|
b-3---3---3---3---3---3---3---3---3---3---3---3---3---3---3-----|
g---------------------------------------------------------------|
d---------------------------------------------------------------|
a---------------------------------------------------------------|
E---------------------------------------------------------------|


Guitar 2
e--x--x--x--x--->---->------>------->------------------------|
b--x--x--x--x--->---->------>------->------------------------|
g--3--3--3--3--->---->------>------->------------------------|
d--5--4--4--3--->---->------>------->------------------------|
a--5--5--4--4--->---->------>------->------------------------|
E--3--3--3--5--->---->------>------->------------------------|

Intro/Preverse/Prechorus
     ^ V   ^ V   ^ V   ^ V    ^ V   ^ V
exxxxxxxxxxxxxxxxxxxxxxxxxxxxxxxxxxxxxxxxxxxxxxxxxxxxx
b----7-7---7-7---7-7---7-7----7-7---7-7----------------------------|
g----0-0---0-0---0-0---0-0----0-0---0-0----------------------------|
d----0-0---0-0---0-0---0-0----0-0---0-0----------------------------|
a-10-----9---------------------------------------------------------|
E--------------7-----5-----10-----7--------------------------------|

I keep my 2nd finger on the 7th fret-b string and then move
my 4th finger from a10 to the a9, then 1st finger from E7
to E5, then 4th on E10 and 1st on E7

(N)(#/b)
11  **
11  **
11


Piano Part
----------
                       (High C)
                          ^^
                          ^^               1
                          ^^             2 ^^
                          3              ^^^^
                     4    ^^             ^^^^
                     ^^   ^^    5        ^^^^
                     ^^   6     ^^       ^^^^
                     ^^   ^^    ^^       ^^^^
11**11**11 11**11**11**11 11**11**11 11**11**11**11
11**11**11 11**11**11**11 11**11**11 11**11**11**11
11  11  11 11  11  11  11 11  11  11 11  11  11  11
______________________________________________________


Verse/Chorus

e-7---7---7--7------7---7---7--7----------------------------------------|
b-7---7---7--7------7---7---7--7----------------------------------------|
g-x---6---x--x------x---6---x--x----------------------------------------|
d-7---0---5--5------7---0---5--5----------------------------------------|
a-0---0---5--5------0---0---5--5----------------------------------------|
E-0---0---0--0------0---0---0--0----------------------------------------|

Ending
     ^ V   ^ V   ^ V   ^ V    ^ V   ^ V
exxxxxxxxxxxxxxxxxxxxxxxxxxxxxxxxxxxxxxxxxxxxxxxxxxxxx
b----7-7---7-7---7-7---7-7----7-7---7-7----------------------------|
g----0-0---0-0---0-0---0-0----0-0---0-0----------------------------|
d----0-0---0-0---0-0---0-0----0-0---0-0----------------------------|
a-10-----9---------------------------------------------------------|
E--------------7-----5-----10-----7--------------------------------|

     ^ V   ^ V   ^ V   ^ V       (PM)    (O)
exxxxxxxxxxxxxxxxxxxxxxxxxxxxxxxxxxxxxxxxx0xxxxxxxxxxx
b----7-7---7-7---7-7---7-7---------7------7-----------------------------|
g----0-0---0-0---0-0---0-0---------0------0-----------------------------|
d----0-0---0-0---0-0---0-0---------0------0-----------------------------|
a-10-----9--------------------------------0-----------------------------|
E--------------7-----5-------------10-----7-----------------------------|



^ = upstroke
_____________
V = downstroke
_______________
x = muted
__________________
(PM) = Palm-muted
_________________
(O) = Open
_________________
11
11  = White key
11
________________
**
**  = Black key
_____________________________
1 , 2
^^  ^^  = Order of piano notes
________________________________
>>
>>    =   continue with chords
>>
___________________________________
___________________________________
___________________________________


Tabbed by: Dever0222
____________________

hit me up at ds0222@gmail.com for questions and check my youtube page at ds0222 for my 
songs and covers!!!
Tap to rate this tab
 
# A B C D E F G H I J K L M N O P Q R S T U V W X Y Z