Song name
# A B C D E F G H I J K L M N O P Q R S T U V W X Y Z

Fences - Hands tab

Hey there, its my first tab so please go easy on me. I think its straight forward enough 
that the chords you use are C, Em, Am. Rhythm is fairly easy to follow too. Have fun 
with this beautiful song!

Don't forget to leave a comment!
Wanna acquaint yourself with a "Fences" fan? twitter : @iamnottimothy

e----1---------|
B------0---0---|
G--------2-----|
D--------------|
A--3-----------| (x4)
E--------------|

e--------------|
B--------------|
G----0---------|
D------2---2---|
A--2-----2-----| (x4)
E--------------|

e--------------------------------------|
B----1---------------------------------|
G------2---2---------------------------|
D--------2-----------------------------|
A--0----------- (x4)-------------------|                  AND REPEAT
E--------------------------------------|

Your hands at your side.
Your eyes looking down.
A smile slowly forming, I heard not a sound.
The way, oh, you talk with your hands.

I took you by your hands, into another room.
We talked about our fathers and lazy afternoons.
The way, oh, you talk with your hands.

We spent some nights hiding in the sheets.
Smoking cigarettes and letting our parts meet.
The way, oh, you talk with your hands.

The way, oh,
The way, oh,
The way, oh.
You talk with your hands.

Can see it in your smile,
that thoughts of me are fading.
when something in between us keeps me anticipating.
The way, oh, you talk with your hands.

Your new man's coming home, and I'm left all alone.
He's taken my crown, and taken my thrown.
The way, oh, you talk with your hands.

Now I'm left where I first saw your face.
Still living in the time,
Still living in the place.
The way, oh, you talk with your hands.

The way, oh,
The way, oh,
The way, oh.

You talk with your hands,

The way, oh,
The way, oh,
The way, oh.

You talk with your hands.

The way, oh,
The way, oh,
The way, oh.

You talk with your hands.
Tap to rate this tab
# A B C D E F G H I J K L M N O P Q R S T U V W X Y Z