Song name
# A B C D E F G H I J K L M N O P Q R S T U V W X Y Z

Fences - The Same Tattoos tab

Artist: Fences
Song: The Same Tattoos
Album: Fences
Tuning: E A D G B E (Capo 1st fret)

This is a corrected tab of the first one on here.

Intro/Main Riff

e |---------------------------------------------|
B |-----8-----8----8----8------8----8----8----8-|
G |-----0-----0----0----0------0----0----0----0-|
D |-----0-----0----0----0------0----0----0----0-|
A |--11---10---------0--------------------------|         
D |-------------8---------11-----8----8----8----|


Verse 1

e |-----x--------------------|
B |---9-----8-----8----8-----|
G |---8-----8-----0----0-----|
D |---10----0----------------|
A |---0---0----11---11-------|       
D |-8---x--------------------|

I was born in the same town as you
Hell, I even think we have the same tattoos
My mother hates it when I smile 
And she sees you coming through me 
Like a sunshine through thin glass

Chorus

e |-----x--------------------|
B |---9-----8-----8----8-----|
G |---8-----8-----0----0-----|
D |---10----0----------------|
A |---0---0----11---11-------|       
D |-8---x--------------------|

It's not like you were really gone gone gone gone
But you were
And I never felt love 

Main Riff

Verse 2

e |-----x--------------------|
B |---9-----8-----8----8-----|
G |---8-----8-----0----0-----|
D |---10----0----x-----------|
A |---0---0----11---11-------|       
D |-8---x--------------------|

My uncle gave me on the day that I turned thirteen
A black box it said ‘Gillette’ rusted and scratched
And it was full of memories and memorabilia
And a necklace with the saints I wore in class

Chorus (x4)

Outro/Main Riff
Tap to rate this tab
# A B C D E F G H I J K L M N O P Q R S T U V W X Y Z