Fenech-soler - Demons tab

-----------------------------------------------------------------
Demons - Fenech-Soler
-----------------------------------------------------------------
Tabbed by: Scott Nicol
Email: scott@scottnicol.co.uk

Official website for Fenech-Soler: http://www.fenechsoler.co.uk/

Tuning: Standard (EADGBE)

For strumming/rhythm: http://www.youtube.com/watch?v=JSW0Op9biFY

The song is just three chords, and played in the following order:
e|-------------------|
B|----5----5----5----|
G|----5----5----5----|
D|----3----0----0----|
A|----3----0----5----|
E|----3----5----0----|
The last chord is played for two measures.

The little fingerpicked bit (can be altered in some places)
e|---------------------------------------------------------------|
B|-----5-----5------5------5-----5-----5-----5-----5-------------|
G|-------5-----5------5------5-----5-----5-----5-----5-----------|
D|---3-----3------5-----5------0-----0-----0-----0-----0---------|
A|---------------------------------------------------------------|
E|---------------------------------------------------------------|

Happy playing! 
Scott
:)
Tap to rate this tab
 
# A B C D E F G H I J K L M N O P Q R S T U V W X Y Z