Guitaretab - guitar tabs
Song name
# A B C D E F G H I J K L M N O P Q R S T U V W X Y Z

Fenix Tx - All My Fault tab

BAND: Fenix Tx
SONG: All My Fault
DIEOG RIVAS
Tuning: Standard(EADGBe)

First of all, I know the solo isn?t 100% right, but its an start 

Intro

**NOTE** Does not show exact rythm, but it's pretty close. Listen to cd, to find out 
	 how many times to pick each chord 
Guitars 1 & 2
     PM........................      PM...................
E|---------------------------------------------------------|
B|---------------------------------------------------------|
G|-7----------------------------7-7------------------------|
D|-7--7-7-7-7-7-7-7-7-7-7-7-7-7-7-7--7-7-7-7-7-7-7-7-7-7-7-|
A|-5--5-5-5-5-5-5-5-5-5-5-5-5-5-5-5--5-5-5-5-5-5-5-5-5-5-5-|
E|---------------------------------------------------------|

     PM.................     PM..................
E|-----------------------------------------------------|
B|-----------------------------------------------------|
G|-----------------------------------------------------|
D|-5----------------------7----------------------7-7-7-|
A|-5--5-5-5-5-5-5-5-5-5-5-7--7-7-7-7-7-7-7-7-7-7-7-7-7-|
E|-3--3-3-3-3-3-3-3-3-3-3-5--5-5-5-5-5-5-5-5-5-5-5-5-5-|

 
Verse 1

**NOTE** I just put the chords, they are in this order, figure out the rythem yourself.
Guitars 1 & 2 

E|---------------------------------|
B|---------------------------------|
G|-7-------------------------------|
D|-7---------5----------7----------|
A|-5---------5----------7----------|
E|-----------3----------5----------|


CHORUS

Guitar 1(rhythm)
E|-----------------------------------|
B|*----------------------------------|
G|-----------------------------------|
D|---9-9-9-9-9-9-9-9-9-9-9-9-9-9-9-9-|
A|*--9-9-9-9-9-9-9-9-9-9-9-9-9-9-9-9-|
E|---7-7-7-7-7-7-7-7-7-7-7-7-7-7-7-7-|
**NOTE** guitar 2(lead) rests or could play the same thing.

Guitar1(rhythm)
E|----------------------------------|
B|----------------------------------|
G|----------------------------------|
D|--5-5-5-5-5-5-5-5-5-5-5-5-5-5-5-5-|
A|--5-5-5-5-5-5-5-5-5-5-5-5-5-5-5-5-|
E|--3-3-3-3-3-3-3-3-3-3-3-3-3-3-3-3-|
**NOTE** guitar 2(lead) rests or could play the same thing.

  guitar 1(rhythm)
E|----------------------------------|
B|----------------------------------|
G|--7-7-7-7-7-7-7-7-7-7-7-7-7-7-7-7-|
D|--7-7-7-7-7-7-7-7-7-7-7-7-7-7-7-7-|
A|--5-5-5-5-5-5-5-5-5-5-5-5-5-5-5-5-|
E|----------------------------------|
 
  guitar 2(lead)                                
E|---------------------------------------------|
B|---------------------------------------------|
G|-7-7-7-7/-9-9-9-9/-11-11-11-11/-12-12-12-12--|
D|-x-x-x-x/-x-x-x-x/-x--x--x--x-/--x--x--x--x--|
A|-5-5-5-5/-7-7-7-7/-9--9--9--9-/-10-10-10-10--|
E|---------------------------------------------|

   guitar 1(rhythm)
E|-----------------------------------|
B|----------------------------------*|
G|-----------------------------------|
D|--7-7-7-7-7-7-7-7-7-7-7-7-7-7-7-7--|
A|--7-7-7-7-7-7-7-7-7-7-7-7-7-7-7-7-*|
E|--5-5-5-5-5-5-5-5-5-5-5-5-5-5-5-5--|
 
   guitar 2(lead)
E|---------------------------------------------|
B|--------------------------------------------*|
G|-/-11-11-11-11-11-11-11-11/-9-9-9-9-9-9-9-9--| Repeat 2X
D|-/-x--x--x--x--x--x--x--x-/-x-x-x-x-x-x-x-x--|
A|-/-9--9--9--9--9--9--9--9-/-7-7-7-7-7-7-7-7-*|
E|---------------------------------------------|


Bridge

**NOTE** Double check my timing, I may be a little off :-)

Guitars 1 & 2
E|-------------------------------------------------------|
B|-------------------------------------------------------|
G|-7-7-7-7--7-7-\\-6-------------7-\\-6-------------7-\\-6--|
D|-7-7-7-7--7-7-\\-6--5-5-5-5--5-7-\\-6--7-7-7-7--7-5-\\-6--|
A|-5-5-5-5--5-5-\\-4--5-5-5-5--5-5-\\-4--7-7-7-7--7-5-\\-4--|
E|-------------------3-3-3-3--3--------5-5-5-5--5--------|

E|----------------------------------------|
B|----------------------------------------|
G|--------------------------------------7-|
D|-9-9-9-9-9-9-9-9-\\-5-5-5-5-/-7-7-7-7--7-|
A|-9-9-9-9-9-9-9-9-\\-5-5-5-5-/-7-7-7-7--5-|
E|-7-7-7-7-7-7-7-7-\\-3-3-3-3-/-5-5-5-5----|


VERSE 2

**NOTE** Does not show exact rythm, but it's pretty close. Listen to cd, to find out 
	 how times to pick each chord :-) 
Guitars 1 & 2
     PM........................      
E|-----------------------------------|
B|*----------------------------------|
G|--7----------------------------7-7-|
D|--7--7-7-7-7-7-7-7-7-7-7-7-7-7-7-7-|
A|*-5--5-5-5-5-5-5-5-5-5-5-5-5-5-5-5-|
E|-----------------------------------|

			 1._______________________ 
    PM.................     PM..................  
E|------------------------------------------------|
B|-----------------------------------------------*|
G|------------------------------------------------|
D|-5----------------------7-----------------------|
A|-5--5-5-5-5-5-5-5-5-5-5-7--7-7-7-7-7-7-7-7-7-7-*|
E|-3--3-3-3-3-3-3-3-3-3-3-5--5-5-5-5-5-5-5-5-5-5--|

  Guitar 1(Rhythm) 
 2.________________________________
E|----------------------------------|
B|----------------------------------|
G|----------------------------------|
D|--7-7-7-7-7-7-7-7-7-7-7-7-7-7-7-7-|
A|--7-7-7-7-7-7-7-7-7-7-7-7-7-7-7-7-|
E|--5-5-5-5-5-5-5-5-5-5-5-5-5-5-5-5-|
 |
 |Guitar 2(lead)
E|----------------------------------|
B|----------------------------------|
G|--x-\\-----------------------------|
D|--x-\\(pick scape)-----------------|
A|--x-\\-----------------------------|
E|----------------------------------|


SOLO

(guitar 2 plays bridge)

E|-----------------------------------------------------
B|-----------------------------------------------------
G|----------11--12--11--12--14--12--11--12--11---------
D|--12--14-------------------------------------12h14p12
A|-----------------------------------------------------
E|-----------------------------------------------------

 -----------------------------------------------------
 -----------------------------------------------------
 -----------------------------------------------------
 -11/12~--14--12--14--12--11-h12-p11---------12-\\11~--
 ------------------------------------12--14-----------
 -----------------------------------------------------

 -----------------------------------------------------
 -----------------------------------------------------
 12--11-12-14-12-11-12-11-----------------------------
 --------------------------14-14--12-12--11-11--12----
 -------------------------------------------------12--
 -----------------------------------------------------

 ---------------------10-10-10-12-12-12-14-14-14-9h10p
 ------------10-10-10----10-10----10-10-10-10-10------
 14--12--11-------------------------------------------
 -----------------------------------------------------
 -----------------------------------------------------
 -----------------------------------------------------

 -----------------------------------------------------
 -12-10~--10--8-10-8--7-h8-p7-----------7-h8-/10--7-8-
 ------------------------------7--6--7----------------
 -----------------------------------------------------
 -----------------------------------------------------
 -----------------------------------------------------

 -----------------------------------------------------
 10-/12-10--8--10--12--10-----10h12p10----------------
 --------------------------12----------12-11----------
 --------------------------------------------12-------
 -----------------------------------------------------
 -----------------------------------------------------

 ---------------------------|
 ---------------------------|
 -x-x-x-x-x-x-x-7\\\\\\\\\\\\\\\\\\\\\\|
 -x-x-x-x-x-x-x-7\\\\\\\\\\\\\\\\\\\\\\|
 -x-x-x-x-x-x-x-5\\\\\\\\\\\\\\\\\\\\\\|
 ---------------------------|


Little Riffs After Solo

**Note** Bass plays alone after solo, and the lead does these 2 riffs 1 x each. You
	 should be able to hear when they happen.
Riff A
Guitar 2(lead)
E|-------------|
B|-------------|
G|---x-x-x-7\\--|
D|---x-x-x-7\\--|
A|---x-x-x-5\\--|
E|-------------|

Riff B
Guitar 2(lead)
E|----------------------------------------------------|
B|----------------------------------------------------|
G|----------------------------------------------------|
D|----------------------------------------------------|
A|--12/11/10/9/8//\" keep picking all the way down\"//--|
E|----------------------------------------------------|


OUTRO

**NOTE** Guitar 1(rhythm) plays the Bridge 2x, on second time Guitar 2 
	 plays this little outro solo.

guitar 2(lead)
E|----------------------------------------------------------------------|
B|----------------------------------------------------------------------|
G|----------------------------------------------------------------------|
D|----------------------------------------------------------------------|
A|-5-7-9-7-5-5--5-7-9-7-5-5--5-7-9-7-5-5--9-10-11-12-10-9-9h10p9h10p9-7-|
E|----------------------------------------------------------------------|

both guitars end on
E|------|
B|------|
G|--7-7-|
D|--7-7-|
A|--5-5-|
E|------|

Song Order

Read All **Notes** To find out how many times to repeat each riff.

Intro
Verse 1
Chorus
Bridge
Verse 2
Chorus
Bridge 2 times + SOLO over top of it.
  RIFF A
  RIFF B
Chorus
Outro
[ Tab from: http://www.guitaretab.com/f/fenix-tx/22279.html ]
Related for All My Fault tab
×
All My Fault